Song name
# A B C D E F G H I J K L M N O P Q R S T U V W X Y Z

Team Sleep - Kool Aid Party tab

-------------------------------------------------------------------------------
			     Kool Aid Party - Team Sleep
-------------------------------------------------------------------------------

Tabbed by:Jonathan Mojica
4/29/03
Email:xcrossx1@yahoo.com

Tuning:Standard

   Riff 1

e|---------------------------------------------------------------------------|
B|---------------------------------------------------------------------------|
G|----------0-----------0-----------0-----------0----------------------------|
D|-------8-----------8-----------8-----------8-------------------------------|
A|----9-----------9-----------9-----------9----------------------------------|
E|-7-----------7-----------7-----------7-------------------------------------|

  Riff 2
e|---------------------------------------------------------------------------|
B|---------------------------------------------------------------------------|
G|----------3--3h4--3-------------3--3h4--3------------3--3h4--3-------------|
D|-------4-------------4-------4-------------4------4-------------4----------|
A|---------------------------------------------------------------------------|
E|-7\0---------------------0--------------------0----------------------------|

  Riff 2 cont.
e|---------------------------------------------------------------------------|
B|---------------------------------------------------------------------------|
G|--------3--3h4--3----------------------------------------------------------|
D|-----4-------------4-------------------------------------------------------|
A|---------------------------------------------------------------------------|
E|-0-------------------------------------------------------------------------|

  Just listen to the song its pretty easy when you use my tab :) . And this is
my third tab by the way thanx David for the inspiration. If your reading this 
tab U got it from www.Ultimate-guitar.com the only place to get accurate 
Team Sleep tabs, much ReSpEcT.


| /  slide up
| \  slide down
| h  hammer-on
| p  pull-off
| ~  vibrato
| +  harmonic
| x  Mute note

===============================================================================
Tap to rate this tab
 
# A B C D E F G H I J K L M N O P Q R S T U V W X Y Z