Song name
# A B C D E F G H I J K L M N O P Q R S T U V W X Y Z

Team Sleep - Acoustic One tab

-------------------------------------------------------------------------------
			     Acoustic One - Team Sleep
-------------------------------------------------------------------------------

Tabbed by:Jonathan Mojica
4/30/03
Email:xcrossx1@yahoo.com

Tuning:Standard


Listen to the Song for timing and struming patterns.

Guitar 1 
Riff 1

e|--0------------------------------------------------------------------------|
B|--0------------------------------------------------------------------------|
G|--0-----2---4-4-0----------------------------------------------------------|
D|--2-----2---2--------------------------------------------------------------| 
A|--3-----0---0--------------------------------------------------------------|
E|---------------------------------------------------------------------------|

Guitar 2 
Riff 1
e|---------------------------------------------------------------------------|
B|----------------12---------------------------------------------------------|
G|--12-12-12\11-9------9/11\9\7--7/9-7-6-------------------------------------|  
D|---------------------------------------------------------------------------|
A|---------------------------------------------------------------------------|
E|---------------------------------------------------------------------------|

Guitar 1
Riff 2

e|-----0-----0-----0-----0---------------------------------------------------|
B|---------------------------------------------------------------------------|
G|-----7-----7-----7-----7---------------------------------------------------|
D|-----0-----0-----0-----0---------------------------------------------------|
A|---------------------------------------------------------------------------|
E|--7-----5-----3-----3------------------------------------------------------|

Guitar 2 
Riff 2
(with some wierd effect)
e|---------------------------------------------------------------------------|
B|---------------------------------------------------------------------------|
G|---------------------------------------------------------------------------|
D|--12----9----5-------------------------------------------------------------|
A|---------------------------------------------------------------------------|
E|---------------------------------------------------------------------------|

Guitar 3
Riff 2

e|---------------------------------------------------------------------------|
B|---------------------------------------------------------------------------|
G|--7-7-7/6-6-6/4-4-4\6-4-4\2--------------4/2-1-----------------------------|
D|----------------------------- x2 then  ------------------------------------|
A|---------------------------------------------------------------------------|
E|---------------------------------------------------------------------------|
   


| /  slide up
| \  slide down
| h  hammer-on
| p  pull-off
| ~  vibrato
| +  harmonic
| x  Mute note

===============================================================================
Tap to rate this tab
# A B C D E F G H I J K L M N O P Q R S T U V W X Y Z