Song name
# A B C D E F G H I J K L M N O P Q R S T U V W X Y Z

Team Sleep - Death By Plane tab

-------------------------------------------------------------------------------
			     Team Sleep-Death By Plane
-------------------------------------------------------------------------------
Tabbed by:ThePianist (El Gabe)
Email:Ibanez_2009GW@hotmail.com

Tuning: i think this is in E flat, but the song is kinda warped if you know what i mean, 
the intonation isnt gonna be that great.

im only tabbing the guitar part, not the electronic tones at the beginning.

e|---------------------------------------------------------------------------|
B|---------------------------------------------------------------------------|
G|--------------------------0-----(emphasize the 4 & open difference)--------|
D|---5---5-5-x--5---5-5-x---4------------------------------------------------|
A|---3---3-3-x--2---2-2-x---2------------------------------------------------|
E|---3---3-3-x--2---2-2-x---0------------------------------------------------|
next is
e|---------------------------------------------------------------------------|
B|---------------------------------------------------------------------------|
G|---------(play around with that chord for the measure)---------------------|
D|---7-------------------------------------(then repeat the stuff above)-----|
A|---5-----------------------------------------------------------------------|
E|---5-----------------------------------------------------------------------|

wow.how difficult. playing this song with "feel" is the most important part...
Tap to rate this tab
# A B C D E F G H I J K L M N O P Q R S T U V W X Y Z