Guitaretab - guitar tabs
Song name
# A B C D E F G H I J K L M N O P Q R S T U V W X Y Z

Team Sleep - Ataraxia tab

Team sleep/Ataraxia
Tabbed: dnes jannu
Email: dnesjannu@gmail.com
Tuning: standard

This song has acoustic guitar, guitar and keyboards. This tab is for one guitar, so go 
it (Esta canción tiene guitarra acústica guiatarra eléctrica y teclado. Esta tablatura es 
una sola guitarra, asi que adelante).

Verse
e|----------------|
B|----8-11-9-8----|
G|--8----------9--|
D|----------------|
A|----------------|
E|----------------|

e|----------------|
B|----8-11-9-8-9--|
G|--8-------------|
D|----------------|
A|----------------|
E|----------------|
[ Tab from: http://www.guitaretab.com/t/team-sleep/59034.html ]
Pre-chorus
e|-----------------------------------------|
B|-----------------------------------------|
G|-----------------------------------------|
D|----6---9-7-6-7-6-------6---9-7-6-7-6-5--|
A|--6-------------------6------------------|
E|-----------------------------------------|

Chorus
e|------------|
B|------------|
G|------------|
D|--9--6--5/--|
A|--9--6--5/--|
E|--7--4--3/--|

End
e|-------------------------------------------------|
B|-------------------------------------------------|
G|-------------------------------------------------|
D|----6---9-7-6-7-6-------6---9-7-6-7-6-5-----6----|
A|--6-------------------6-------------------6---6--|
E|-------------------------------------------------|
Related for Ataraxia tab
Ataraxia chords by Team Sleep