Song name
# A B C D E F G H I J K L M N O P Q R S T U V W X Y Z

Team Sleep - Ever Since Wwi tab

Tabed by Devin Davis
Standard tuning


e|--------------0----------------|
B|--------------0----------------|
G|-4---4--9-9-4---4--4-4b5r4-----|
D|-x---x--x-x-x---x--x-----------|Intro and Chorus
A|-2---2--7-7-2---2--2-----------|
E|-------------------------------|

e|---------------------------|
B|-----------8--7------------|
G|---7---7-9---------7-9-----|
D|-9----9----------9-----9---|Verse Part 1
A|---------------------------|
E|---------------------------|

e|----------------------------------------------------------|
B|-----9--10--9-----7----------9--10--9--7--7--7--5--5--5---|
G|-9-------------9-----6----9-------------------------------|
D|----------------------------------------------------------|Verse Part 2
A|----------------------------------------------------------|
E|----------------------------------------------------------|

e|----------------------------------------------------------------------|
B|----------------------------------------------------------------------|
G|-7-7-7--7-7-7-4-4-4--4-4-4------9--9--9-11-11-11-12--12--12-11-11-11--|
D|-x-x-x--x-x-x-x-x-x--x-x-x-(x2)-x--x--x-x--x--x--x---x---x--x--x--x---|Ending
A|-5-5-5--5-5-5-2-2-2--2-2-2------7--7--7-9--9--9--10--10--10-9--9--9---|
E|----------------------------------------------------------------------|
                                  Repeat ^ this part till the end of the song
Tap to rate this tab
# A B C D E F G H I J K L M N O P Q R S T U V W X Y Z