Song name
# A B C D E F G H I J K L M N O P Q R S T U V W X Y Z

Tears For Fears - Shout tab

Tears for Fears - Shout (solo)
This tab is a 100% accurate.
Legend:
~ Vibrato
/Slide up
\Slide down
|---------------------------|
|---------------------------|
|----12-12-12-12-12-12-12-12|
|---------------------------|
|---------------------------|
|---------------------------|

|--------10-10----------------|
|------13----------11------11-|
|-10-12-------10-12--10--12---|
|-----------------------------|
|-----------------------------|
|-----------------------------|

|13-13-11-10-10----------------|
|--------------13-11-11--------|
|-----------------------12-10--|
|------------------------------|
|------------------------------|
|------------------------------|

|-----------------10-10------------10-10-----------------------------/15~-|
|---------------13-----11--------13-----11--------------------------------|
|-10-10-12-10-12---------12-10-12---------12-10-12-10-12-10-12-10-12------|
|-------------------------------------------------------------------------|
|-------------------------------------------------------------------------|
|-------------------------------------------------------------------------|

|-18-17-------------------------------------------------------|
|------18-15-15-----15-----15--18-18-16-15-15-----------------|
|--------------15-17--15-17-------------------17-15-15-\12-10-|
|-------------------------------------------------------------|
|-------------------------------------------------------------|
|-------------------------------------------------------------|

|------------10-10\-------10-10\-------|
|------11--13-------11--13-------------|
|-10-12--12-----------12---------------|
|--------------------------------------|
|--------------------------------------|
|--------------------------------------|

|-10-13-13-10-13-13-10-13-13-10-13-10--|
|--------------------------------------|
|--------------------------------------|
|--------------------------------------|
|--------------------------------------|
|--------------------------------------|
Tap to rate this tab
# A B C D E F G H I J K L M N O P Q R S T U V W X Y Z