Song name
# A B C D E F G H I J K L M N O P Q R S T U V W X Y Z

Tears For Fears - Dogs A Best Friends Dog tab

        Tears for Fears - Dog's a Best Friend's Dog
                 tabbed by: Eric Flament

                EADGBE  EADGBE EADGBE
                x577xx  x355xx x799xx
                  D       C       E

    Main Lick -  D  D  C  D  C  E  C

      lay fingers across 7th fret
    E|------------------------------------------------------
    B|------------------------------------------------------
    G|-X--X--X--X----X----X--X---------9--------------------
    D|-X--X--X--X----X----X--X---------9--------------------
    A|-X--X--X--X----X----X--X---------7--------------------
    E|-X--X--X--X----X----X--X---------X--------------------
             Dog's a best friend's dog

solo - first part played on G scale G|-----------------5----
                                    D|-------------5-7------
             These Notes            A|-----3-5-6-7----------
                                    E|-3-5------------------
2nd Part
e|----------------------------------------------------------
B|----------------------------------------------------------
G|----------------------------------------------------------
D|---------------4------------------------------------------
A|--6--6---4-6-6---6--5--4----------------------------------
E|--------------------------6--6-4-4--6--5--4--0------------

e|----------------------------------------------------------
B|----------------------------------------------------------
G|-----------------------------------4-5-6-8----------------
D|---------------4---------6--6--4-6------------------------
A|--6--6---4-6-6---6--5--4----------------------------------
E|----------------------------------------------------------
Tap to rate this tab
# A B C D E F G H I J K L M N O P Q R S T U V W X Y Z