Song name
# A B C D E F G H I J K L M N O P Q R S T U V W X Y Z

Tears For Fears - Advice For The Young At Heart tab

Band - Tears for Fears
Album - The Seeds of Love
Song - Advice for the Young at Heart

Tabbed by TheReFiller (aka, Toasty4you)

Thanks for viewing my first tab! This is the first solo I've learned by ear,
and I'm very sure all of this is 100 percent correct. Although, since I'm
new to tabbing, the format may be off a little. If you have any questions or
comments, please email me at toasty4you@gmail.com

E--------------------------|----------------------|-------------------------|
B-13\----------------------|----------------------|-------------------------|
G-14\-------10--12b14r12~--|-10-9-----------------|-------------------------|
D-------/12----------------|------10~--7--5--7----|------------------10~----|
A--------------------------|----------------------|-5--3--5--8--8/12--------|
E--------------------------|----------------------|-------------------------|

E--------------------------|----------------------|-------------------------|
B--------------------------|-------13-------------|-------------------------|
G-----10--12b14------10----|-12b14----14r12--10~--|-12--10--9--7b9r7p5------|
D-/12------------/12-------|----------------------|-------------------------|
A--------------------------|----------------------|-------------------------|
E--------------------------|----------------------|-------------------------|

E--------------------------||
B--------------------------||
G---5~----------------5----||
D-7-----7--7p5---5--7---7~-||
A--------------7-----------||
E--------------------------||
Tap to rate this tab
 
# A B C D E F G H I J K L M N O P Q R S T U V W X Y Z