Song name
# A B C D E F G H I J K L M N O P Q R S T U V W X Y Z

Tears Of Blood - Seeing Stars tab

e--------0-0--5-0-7-0-5-0-0-3-0-5-------------------------------------------|
b-----------------------------------0-0--5-0-7-0-5-0-0-3-02-0-3-1-----------|
g---------------------------------------------------------------------------|
d---------------------------------------------------------------------------|
a---------------------------------------------------------------------------|
e---------------------------------------------------------------------------|

this tab is fast so speed it up then slow it down


e----------------------------------------------------------------------------|
b----------------------------------------------------------------------------|
g----------------------------------------------------------------------------|
d----------------------------------------------------------------------------|
a-3-3-3-----8-8----6-6-6--4-4-4-4-4------------------------------------------|
e-1-1-1-----6-6----4-4-4--2-2-2-2-2------------------------------------------|
Tap to rate this tab
# A B C D E F G H I J K L M N O P Q R S T U V W X Y Z