Song name
# A B C D E F G H I J K L M N O P Q R S T U V W X Y Z

Tech N9ne - Little Pills tab

Help us improve GuitareTab! Take a short survey!
Artist: Tech N9ne
Song: Little Pills
Album: Everready: The Religion

The following is the first tab I've submitted.  This is for the Little Pills bonus track
Tech N9ne's Everready: The Religion (Disk 2).  If you wish to email me about any
my email is ps9billy@yahoo.com.  It's a little incomplete, but if you listen to the song 
of the parts are either variations of the intro or first verse chords.

Tuned in Drop D

Slide = /
Let Ring = ~
Harmonic: *

Intro:
e|------------------------------------------|x2
b|------------------------------------------|
g|---7--7/1-----3~-----7--7/1-----3----5----|
d|--5--5-------1------5--5-------1----3-----|
a|-5----------1------5----------1----3------|
D|5----------1------5----------1----3-------|

Verse and Chorus:
e|------------------------------------------------------------|
b|------------------------------------------------------------|
g|------------------------------------------------------------|
d|5-555-555--8--1-111-111--3--5-555-555--8--1111-0033---------|
a|5-555-555--8--1-111-111--3--5-555-555--8--1111-0033---------|
D|5-555-555--8--1-111-111--3--5-555-555--8--1111-0033---------|

Interlude Part:
e|-----------------------------------------|
b|--------------5~-------------------------|
g|---7----7-------7------3-----------------|
d|--5---5------5---5----1--1-1--3333-55-00-|
a|-5-----5----5--------1----1---3333-55-00-|
D|5----------5--------1---------3333-55-00-|

Pre-Verse:
e|------------------------------------------|
b|------------------------------------------|
g|---7--7/1-----3~-----7--7/1-----3--5------|
d|--5--5-------1------5--5-------1----3-----|
a|-5----------1------5----------1------3----|
D|5----------1------5----------1--------3---|

Outro:
e|--------------------------------------------|
b|--------------------------------------------|
g|---7--7/1-----3~-----7--7/1-----3-5---------|
d|--5--5-------1------5--5-------1---3----5*--|
a|-5----------1------5----------1-----3-------|
D|5----------1------5----------1-------3------|


Intro x2
Verse/Chorus x4
Interlude
Pre-Verse
Verse/Chorus x4
Interlude
Pre-Verse x2
Verse/Chorus x3
Interlude
Outro
Related for Little Pills tab