Song name
# A B C D E F G H I J K L M N O P Q R S T U V W X Y Z

Tech N9ne - Dysfunctional tab

Artist: Tech N9ne
Album: Sickology
Track: Dysfunctional
Tabbed by: Joe Fernandez
Email: Exalteth@Gmail.com


e|---------------------------------------------------------|
B|---------------------------------------------------------|
G|---------------------------------------------------------|
D|---------------------------------------------------------|
A|---------------9-9--9-9-9--9-8-8--8-8-8--8---------------|
E|-6-6--6-6-6--6-----------------------------9-9--9-5-5--5-|

e|---------------------------------------------------------|
B|---------------------------------------------------------|
G|---------------------------------------------------------|
D|---------------------------------------------------------|
A|---------------9-9--9-9-9--9---------------8-8--8--------|
E|-6-6--6-6-6--6---------------9-9--9-9-9--9--------5-5--5-|

Chorus

e|------------------------|
B|------------------------|
G|-------6----------------|
D|-8-----6-----4-----7--3-|
A|-8-----4-----4-----7--3-|
E|-6-----------2-----5--1-|
Tap to rate this tab
# A B C D E F G H I J K L M N O P Q R S T U V W X Y Z