Song name
# A B C D E F G H I J K L M N O P Q R S T U V W X Y Z

Tech N9ne - Einstein tab

----------------------------------------------------------------------------
                                                    Einstein - Tech N9ne
----------------------------------------------------------------------------

Album: Anghellic
Year: 2001
Tabbed by: Istarii
E-mail: istariimusic@hotmail.com

Tuning: Standard

  Fig. 1                 End Fig. 1

e|--------------------------------|
B|--------------------------------|
G|-----------------------------7--|
D|-9-9p7h9~------------7-9-10-----|
A|--------------------------------|
E|--------------------------------|


  Fig. 2            End Fig. 2
  (Palm Muted)
e|---------------------------|
B|---------------------------|
G|---------------------------|
D|-9-9-9---9-7---9-9-9---9---|
A|-9-9-9---9-7---9-9-9---9---|
E|-7-7-7---7-5---7-7-7---7---|


  Fig. 3                   End Fig. 3

e|-------------------------------10--|
B|-12-12p10h12~--------10-12-13------|
G|-----------------------------------|
D|-----------------------------------|
A|-----------------------------------|
E|-----------------------------------|


Fig. 1 = Organ melody
Fig. 2 = Follows the bass line (play when the organ melody is absent)
Fig. 3 = 3rd Verse - the organ melody raises

http://www.reverbnation.com/istarii
Tap to rate this tab
# A B C D E F G H I J K L M N O P Q R S T U V W X Y Z