Song name
# A B C D E F G H I J K L M N O P Q R S T U V W X Y Z

Tech N9ne - This Ring tab

-------------------------------------------------------------------------------
                                                    This Ring - Tech N9ne
-------------------------------------------------------------------------------
Album: Anghellic
Year: 2001
Tabbed by: Istarii
E-mail: istariimusic@hotmail.com

Tuning: Standard


  Fig. 1  (piano melody)                      End Fig. 1

e|-----------------------------------------------------|
B|-----------------------------------------------------|
G|-----------------------------------------------------|
D|-----------------------------------------------------|
A|-------0-----0-2-0---0-0-2-0---------0-2---0---------|
E|-2------42-4----------2------2-----4-------------020-|



  Fig. 2                                            End Fig. 2

  (These are one's and two's)
e|------------------------------------------------------------|
B|------------------------------------------------------------|
G|-------1111111111111111---111----111-----11----1111--11-----|
D|---------------------------------------22-------------------|
A|------------------------------------------------------------|
E|------------------------------------------------------------|


Fig. 1 = Piano melody - plays during chorus sections
Fig. 2 = Fast guitar during second half of verses
Tap to rate this tab
# A B C D E F G H I J K L M N O P Q R S T U V W X Y Z