Song name
# A B C D E F G H I J K L M N O P Q R S T U V W X Y Z

Tech N9ne - One Good Time tab

-------------------------------------------------------------------------------
			     One Good Time - Tech N9ne
-------------------------------------------------------------------------------
Tabbed by: Matt Edwards

Tuning: Full Step Down (DGCFAd)

Intro & verse:
d|---0--------0--------0--------|
A|---0--------0--------0--------|
F|---5--------7--------9--------|
C|---5--------7--------9--------|
G|---3--------5--------7--------|
D|---0--------0--------0--------|

-Slide between notes-
Tap to rate this tab
# A B C D E F G H I J K L M N O P Q R S T U V W X Y Z