Guitaretab - guitar tabs
Song name
# A B C D E F G H I J K L M N O P Q R S T U V W X Y Z

Tech N9ne - Riot Maker tab

Drop d tuning
E|---------------------------- \    /
B|----------------------------  \  /
G|----------------------------   \/  
D|0-2-3-0--3---5-7-8-5--8-7-3-   /\   2  
A|0-2-3-0--3---5-7-8-5--8-7-3-  /  \     
D|0-2-3-0--3---5-7-8-5--8-7-3- /    \

then u repeat that twice then WHAMMY heres the next part...
[ Tab from: http://www.guitaretab.com/t/tech-n9ne/86908.html ]
E|-----------------------------------------------------
B|-----------------------------------------------------
G|-----------------------------------------------------
D|0-0-0-0-2-2-3-3-3-0-3-------5-5-5-5-7-7-8-8-8-5-8-7-3
A|0-0-0-0-2-2-3-3-3-0-3-------5-5-5-5-7-7-8-8-8-5-8-7-3
D|0-0-0-0-2-2-3-3-3-0-3-------5-5-5-5-7-7-8-8-8-5-8-7-3
Related for Riot Maker tab