Song name
# A B C D E F G H I J K L M N O P Q R S T U V W X Y Z

Ted Daffan - Born To Lose tab

INTRO/VERSE

E|------------------------------------------|
B|------------------------------------------|
G|------------------------------------------|
D|------------------------------------------|
A|-----5--------------------5-77777-5-4-0---|
E|77777-7522222222-4-5555555----------------|

E|------------------------------------------|
B|------------------------------------------|
G|------------------------------------------|
D|------------------------------------------|
A|---5----5-------------------5-77777-5-4-0-|
E|77---77---752222222-4-555555--------------|

CHORUS

E|-----------------------------------------------------|
B|-----------------------------------------------------|
G|--------------------------7-7-7-7-7-7--9-9-9-9-9-9---|
D|7-7-7-7-7-7--9-9-9-9-9-9--7-7-7-7-7-7--9-9-9-9-9-9---|
A|7-7-7-7-7-7--9-9-9-9-9-9--5-5-5-5-5-5--7-7-7-7-7-7---|
E|5-5-5-5-5-5--7-7-7-7-7-7-----------------------------|

E|------------------------------------------------------|
B|------------------------------------------------------|
G|---999----999--------------------------77-999-77-999--|
D|77-999-77-999-----99----9----99-----9--77-999-77-999--|  X2
A|77-777-77-777-----99----9----99-----9--55-777-55-777--|
E|55-----55------pm.77open7-pm.77open.7-----------------|


Solo soon to come. . .
Tap to rate this tab
# A B C D E F G H I J K L M N O P Q R S T U V W X Y Z