Song name
# A B C D E F G H I J K L M N O P Q R S T U V W X Y Z

Ted Gardestad - Sa Mycket Battre chords

Highlighted       Show chord diagrams
--------------------------------------------------------------------------------------------
                              Ted Gardestad - Sa Mycket Battre
--------------------------------------------------------------------------------------------


 - Lyssna pa laten sa hanger ni forhoppningsvis med pa vad jag menar.
 - Ackorden ar ungefar detsamma genom hela laten.
 - Lite osaker pa vissa av ackorden speciellt i slutet av versen och i borjan av reff.

Intro: Am Asus4 Am G 

 - Det har ar endast grunden, men lyssna pa laten och spela med sa forstar ni hur det hanger ihop.
  

 e|---------------------3------------|
 b|----1----3----1-------3-----------|
 g|----2----2----2--------0----------|  x3
 d|----2----2----2-0-------0---------| 
 a|----0--------------------2--------|
 E|--------------------3-----3-------|




 Am      G            F     E
Har du brottats med svara plagor
 Am     G        F        E
Har du markt att ja' har ratt
 Am      G            F       E
Du hade fel och blev eld och lagor
 Am       G     F      Am 
For att svaret va' sa latt

 Am            C       G        F7
Men det blir battre om vi e' tillsammans
 Am         C         G     F7
Sa mycket battre for oss allesammans
 Am         C         G - F - E    
Sa mycket battre, for o o o ooh oss

MELLANSPEL: Am G Am G x ?
 +
INTRO...


De' e' enkelt att vara kritisk
Och sla ner pa det som finns
Men ibland kan man vara nitisk
Aven om man e' kladd i jeans


Men det blir battre om vi e' tillsammans
Sa mycket battre for oss allesammans
Sa mycket battre, for o o o ooh oss

MELLANSPEL...
  +
INTRO...


Har du brottats med svara plagor
Har du markt att ja' har ratt
Du hade fel och blev eld och lagor
For att svaret va' sa latt


Men det blir battre om vi e' tillsammans
Sa mycket battre for oss allesammans
Sa mycket battre, for o o o ooh oss

Tap to rate this tab
 
# A B C D E F G H I J K L M N O P Q R S T U V W X Y Z