Song name
# A B C D E F G H I J K L M N O P Q R S T U V W X Y Z

Ted Gardestad - Himlen Ar Oskyldigt Bla tab

E:----------------------------------------------------------|
B:--------------9---------------------4--4--4--3-----1--1---|
G:--12--12--12-----12--10--8-------8--------------3---------|
D:----------------------------------------------------------|
A:----------------------------------------------------------|
E:----------------------------------------------------------|

E:-------------------------------------------------------------|
B:-----4--4--4--3--1------1-----------4--8--8--8--9--8-----6---|
G:--8----------------3-------3--1--0--------------------8------|
D:-------------------------------------------------------------|
A:-------------------------------------------------------------|
E:-------------------------------------------------------------|

E:------------------------------11--11--11--10--8------8-------|
B:--8--8--8--9--8--6-------------------------------12----------|
G:--------------------8------8---------------------------------|
D:-------------------------------------------------------------|
A:-------------------------------------------------------------|
E:-------------------------------------------------------------|

E:-----11--11--11--10--8------8--7--5--3-------3--3--3--5--3--------|
B:------------------------12----------------------------------6-----|
G:--8---------------------------------------8--------------------8--|
D:------------------------------------------------------------------|
A:------------------------------------------------------------------|
E:------------------------------------------------------------------|
Tap to rate this tab
# A B C D E F G H I J K L M N O P Q R S T U V W X Y Z