Song name
# A B C D E F G H I J K L M N O P Q R S T U V W X Y Z

Ted Gardestad - Sol Vind Och Vatten tab

*-- PLEASE NOTE ------------------------------------------------------------*
* This work is simply the author's own interpretation of the named song.    *
* It should be for private/study use only.                                  *
*---------------------------------------------------------------------------*

Song: Sol, Vind och Vatten
Artist: Ted Grdestad
CD:
Tabber:	Roger Olofsson (raggen@passagen.se)

Capotaster p band 1 fr original tonart
Intro
E------3------3------3-----3---------|-----------------------------------|
B------3------3------3-----3---------|--------0h1-0-1-0-0--0h1-0-1-0-0---|
G----2--2---2--2---2--2--2--2--------|-0h2-0~-0--------2---0--------2----|
D--0------0------0------0------0h2---|-----------------------------------|
A------------------------------------|-----------------------------------|
e------------------------------------|-------------------3---------------|

G             Am7          G            C

  nnu spelar syrsor till vindarnas sus

     G       Am7           C          D

  nnu rullar kulorna p skolgrdens grus

Riff
E--0-3-0-----------------------------|-----------------------------------|
B--------3-0-------------------------|-----------------------------------|
G------------2-0---------------------|-----------------------------------|
D---------------2--------------------|-----------------------------------|
A------------------------------------|-----------------------------------|
e------------------------------------|-----------------------------------|




  G           Am7      G            C

 n strlar solen p brunbrnda ben

   G       Am7            C    snabb G  

nnu ruvar fglarna fast timmen r sen 





           D           C            D       C 

det finns tid till frsoning innan dagen r frbi

          Hm          Am7              C    D

fr jag tror jag tror p friheten jag lever i

  G            D              C          Paus

 r det inte verklighet s drmmer jag



D                        Em                 

sol vind och vatten r det bsta som jag vet

C                    C           D        G 

men det r dig jag tnker p i hemlighet



D                        Em                      C

sol vind och vatten hga berg och djupa hav
Riff ver hav
E------------------------------------|-----------------------------------|
B------------------------------------|-----------------------------------|
G----s4--2--0------------------------|-----------------------------------|
D---------------2-0------------------|-----------------------------------|
A------------------------------------|-----------------------------------|
e------------------------------------|-----------------------------------|



Am7            D            G 

det r mina drmmar vvda av


Riff
E-----------------------------------|
B--------0h1-0-1-0-0--0h1-0-1-0-0---|
G--------0--------2---0--------2----|
D-----------------------------------|
A-----------------------------------|
e-------------------3---------------|





G		Am      G        Am

jag vill veta vgen till hedarnas hus

G		Am       	C            D

jag behvaer att omges av en ledstjrnas ljus

G		Am       G       Am

det skymmer vid sion och natten blir sval

G		Am                   C            G

men n doftar blommorna i skuggornas dal



          D          C           D       C 

det finns tid till frsoning innan dagen r frbi

        Am                        C    D

fr jag tror jag tror p friheten jag lever i

  G          D            C    

 r det inte verklighet s drmmer jag



D                        Bm                     C		Am				D

sol vind och vatten r det bsta som jag vet men det r dig jag tnker

p i hemlighet    

D			Bm		C	Am		D	G

sol vind och vatten hga berg och djupa hav Det r mina drmmar vvda av







From:	Bjrn Sellin 



E------------------------------------|-----------------------------------|
B------------------------------------|-----------------------------------|
G------------------------------------|-----------------------------------|
D------------------------------------|-----------------------------------|
A------------------------------------|-----------------------------------|
e------------------------------------|-----------------------------------|




"Let freedom ring"

"Oh Rock of ages do not crumble love is breathing still"
"Oh Lady Moonshine down, a little people magic if you will"

This tab was created with the help of an Amiga computer and the sampling
software Audiomaster IV, under the menu effects/duration/pitch the
frequency and the pitch can be doubled, thus enabling the program to play
back the sample at half the speed but with the original pitch.

E------------------------------------|-----------------------------------|
B------------------------------------|-----------------------------------|
G------------------------------------|-----------------------------------|
D------------------------------------|-----------------------------------|
A------------------------------------|-----------------------------------|
e------------------------------------|-----------------------------------|


Sol vind och vatten     - Ted Grdestad





  G        Am       G        C

nnu spelar syrsor till vindarnas sus

  G        Am         C          D

nnu rullar kulorna p skolgrdens grus

  G         Am     G         C

 n strlar solen p brunbrnda ben

  G       Am            C        G  

nnu ruvar fglarna fast timmen r sen 





          D          C           D       C 

det finns tid till frsoning innan dagen r frbi

        Am                        C    D

fr jag tror jag tror p friheten jag lever i

  G          D            C    

 r det inte verklighet s drmmer jag



D                        Bm                     C

sol vind och vatten r det bsta som jag vet

Am                    C                         D         

men det r dig jag tnker p i hemlighet



D                        Bm                      C

sol vind och vatten hga berg och djupa hav

Am            D            G 

det r mina drmmar vvda av



G		Am      G        Am

jag vill veta vgen till hedarnas hus

G		Am       	C            D

jag behvaer att omges av en ledstjrnas ljus

G		Am       G       Am

det skymmer vid sion och natten blir sval

G		Am                   C            G

men n doftar blommorna i skuggornas dal



          D          C           D       C 

det finns tid till frsoning innan dagen r frbi

        Am                        C    D

fr jag tror jag tror p friheten jag lever i

  G          D            C    

 r det inte verklighet s drmmer jag



D                        Bm                     C		Am				D

sol vind och vatten r det bsta som jag vet men det r dig jag tnker

p i hemlighet    

D			Bm		C	Am		D	G

sol vind och vatten hga berg och djupa hav Det r mina drmmar vvda av







From:	Bjrn Sellin 
Tap to rate this tab
# A B C D E F G H I J K L M N O P Q R S T U V W X Y Z