Song name
# A B C D E F G H I J K L M N O P Q R S T U V W X Y Z

Ted Lennon - Face Up tab

Highlighted       Show chord diagrams
-------------------------------------------------------------------------------
			     FACE UP - TED LENNON
-------------------------------------------------------------------------------
                 !This is my own interpretation of this song!
-------------------------------------------------------------------------------
Tabbed by: andrew & tyler

Tuning: standard


chords:
     
 G:  3-5-5-4-3-3
 C:  3-3-5-5-5-3
 D:  5-5-7-7-7-5
 A:  5-7-7-6-5-5
 A#: 6-8-8-7-6-6
 B:  7-9-9-8-7-7
 C2: 8-10-10-9-8-8
 D2: 10-12-12-11-10-10
 D7: 10-12-10-11-10-10


verse:
 G - C - G - D

fill after D (variation 1):
 e|----------------|
 B|----------------|
 G|-5h7p5----------|
 D|------7--5h7p5--|
 A|--------------7-|
 E|----------------|

fill after D (variation 2):
 e|----------------|
 B|----------------|
 G|-5h7p5----------|
 D|------7---5-----|
 A|-------------7--|
 E|----------------|


chorus:
 D - C - G

bridge:
 A - A# - B - C2 - G
 A - A# - B - C2 - D2 - D7





| h  hammer-on
| p  pull-off
===============================================================================
Tap to rate this tab
# A B C D E F G H I J K L M N O P Q R S T U V W X Y Z