Song name
# A B C D E F G H I J K L M N O P Q R S T U V W X Y Z

Ted Leo - Timorous Me tab

|----------------------------------------|
|----------------------------------------|
|----------------------------------------|
|----------------------------------------|
|-16-16-16-16-16-16-16-16-16-16-16-16h18-|
|----------------------------------------|

|----------------------------------------|
|----------------------------------------|
|----------------------------------------|
|-16-18-18-18-18-18-18-18-18-18-18-18-18-|
|----------------------------------------|
|----------------------------------------|

|------------------|
|------------------|
|-16-15--15--------|
|------18--18-16---|
|---------------18-|
|------------------|

|------------------|
|------------------|
|-----------4------|
|----2h4h2/6-6-4-2-|
|-2h4--------------|
|------------------|


...ya...look at the other tabs for the duet part thing
Tap to rate this tab
# A B C D E F G H I J K L M N O P Q R S T U V W X Y Z