Song name
# A B C D E F G H I J K L M N O P Q R S T U V W X Y Z

Ted Leo - First To Finish Last To Start tab

-------------------------------------------------------------------------------
			     First To Finish Last To Start - Ted Leo
-------------------------------------------------------------------------------
Tabbed by:lmcoon
Email:lmcoon@hotmail.com

Tuning: Standard

He doesn't play the top strings as much as the bottom.  Listen to the song for
where the upstrokes are.  Its mostly these chords the whole time, then just repeat.  
P.S. - I watched it live to get these.


e|-8----5---1-1---8------5-5--8----1---1--3----5-5-5----1~---1--3-3----------|
B|-8----5---1-1---8------5-5--8----1---1--3----5-5-5----1~---1--3-3----------|
G|-9----6---2-2---9------6-6--9----2---2--4----6-6-6----2~---2--4-4----------|
D|-10---7---3-3---10-----7-7--10---3---3--5----7-7------3~---3--5-7--Repeat--|
A|-10---7---3-3---10-----7-7--10---3---3--5----7-7------3~---3--5-7----------|
E|-8----5---1-1---8------5-5--8----1-0-1--3----5-5------1~-0-1--3-5----------|
Tap to rate this tab
 
# A B C D E F G H I J K L M N O P Q R S T U V W X Y Z