Song name
# A B C D E F G H I J K L M N O P Q R S T U V W X Y Z

Ted Leo - Criminal Piece tab

Artist: Ted Leo
Song: Criminal Piece
Tabbed by: karlh07
Email: karlh07@gmail.com

*=Palm mute
\=Slide

Intro
(Play 4x, but on 3rd time change it to Fig. 1)
e----------------------------------------|
B----------------------------------------|
G----------------------------------------|
D----------------------------------------|
A----2*-2*--5-5-5---5--------------------|
E-----------------7---7-5---0-0-2-3-2-0--|

Fig. 1
e----------------------------------------|
B-----------------------9----------------|
G-----------------------X----------------|
D-----------------------7----------------|
A----2*-2*--5-5-5---5--------------------|
E-----------------7---7----0-0-2-3-2-0---|

Verse (2x)

    D  	      Em       G        D
e---5----|----0---|----3---|----5----|
B---7----|----0---|----3---|----7----|
G---7----|----0---|----4---|----7----|
D---7----|----2---|----5---|----7----|
A---5----|----2---|----5---|----5----|
E--------|----0---|----3---|---------|


Chorus (2x)

    A       Em
e---5---|---0---|------------------5---------|
B---5---|---0---|------------------7---------|
G---6---|---0---|------------------7---------|
D---7---|---2---|------------------7---------|
A---7---|---2---|---5--4--2--0-----5---------|
E---5---|---0---|----------------3-----------|

Alternate chorus - (There are 2 guitars, and one plays the first chorus
part and the other plays this.)

    A       Em      G       D
e---5---|---0---|---3---|---5---|
B---5---|---0---|---3---|---7---|
G---6---|---0---|---4---|---7---|
D---7---|---2---|---5---|---7---|
A---7---|---2---|---5---|---5---|
E---5---|---0---|---3---|-------|


Bridge

(Played over the bass and intro riff.)
e------------------|--------------------|
B------------------|--------------------|
G--7-7-7-7-7-------|--9-9-9/12-12-12----|
D------------7-7---|--------------------|
A--5-5-5-5-5-------|--7-7-7/10-10-10----|
E------------5-5---|--------------------|
Tap to rate this tab
# A B C D E F G H I J K L M N O P Q R S T U V W X Y Z