Song name
# A B C D E F G H I J K L M N O P Q R S T U V W X Y Z

Ted Leo - Where Have All The Rude Boys Gone tab

Help us improve GuitareTab! Take a short survey!
|-------------------------------------------------|
|-------------------------------------------------|
|-------------------------------------------------|
|-11h12p11-9-7-7-7h9-12-19-19---------------------|
|-0--------0-0-0-0---0--0--0----------------------|
|-------------------------------------------------|

|-------------------------------------------------|
|-------------------------------------------------|
|-------------------------------------------------|
|-11h12p11-9-7-7-19191919191919...----------------|
|-0--------0-0-0-0-0-0-0-0-0-0--------------------|
|-------------------------------------------------|

ya thats the intro maybe the rest of the song will show up later
Related for Where Have All The Rude Boys Gone tab