Song name
# A B C D E F G H I J K L M N O P Q R S T U V W X Y Z

Ted Leo - My Vien Llin tab

well i seem to be unvieling the contents of ted leo's mind again...i hope he
doesnt get angry with me. but heres a great song called my vien llin...ya

|--------------------------------|\
|--------------------------------| \
|--------9-9---------------------|  \
|-7--7---9-9---9/4-4-4-4-4-4-4-4-|   \
|-7--7---7-7---9/4-4-4-4-4-4-4-4-|    \
|-5--5---------7/2-2-2-2-2-2-2-2-|     \
                                        \--alternate
                                        /--between two...alot
|--------------------------------|     /
|--------------------------------|    /
|--------9-9---------------------|   / 
|-7--7---9-9---9/4-4-4-4/9-9-9---|  /
|-7--7---7-7---9/4-4-4-4/9-9-9---| /
|-5--5---------7/2-2-2-2/7-7-7---|/


|-------------------------|
|-------------------------|
|-------------------------|
|-77777777-66666666-2~~~~-|
|-77777777-66666666-2~~~~-|
|-55555555-44444444-0~~~~-|
                            1st
|--------------------------|----------------------|
|-2b3b2-22222-3333-22-3333o|-33333333-22222222----|
|--------------------------|--------------------2-|
|--------------------------|----------------------|
|-------------------------o|----------------------|
|--------------------------|----------------------|

2nd
|-------------------------|
|-------------------------|
|-------------------------|
|-77777777-66666666-2~~~~-|
|-77777777-66666666-2~~~~-|
|-55555555-44444444-0~~~~-|

|---------------------------------------------------------------------|
|-2b3b2-22222-3333-22-3333-33333333-22222222-----2b3b2-2b3b2/14b13b14-|
|----------------------------------------------2----------------------|
|---------------------------------------------------------------------|
|---------------------------------------------------------------------|
|---------------------------------------------------------------------|

thats pretty much it...there are variations and i know the stroking patterns are wrong but...ya enjoy.

Tap to rate this tab
# A B C D E F G H I J K L M N O P Q R S T U V W X Y Z