Song name
# A B C D E F G H I J K L M N O P Q R S T U V W X Y Z

Ted Leo - Little Dawn tab

Help us improve GuitareTab! Take a short survey!
|----0---0---0---0-|\
|-0h3-0h3-0h3-0h3--| \
|------------------|  \
|------------------|   \
|------------------|    \
|------------------|x2   \
                          \x5
|----2---2---2---2-|      /
|-0h3-0h3-0h3-0h3--|     /
|------------------|    /
|------------------|   /
|------------------|  /
|------------------|x2

|---| --------- |----| ----------------------- |----|\
|---|           |-11-|                         |----| \                  
|-9-|           |-11-|                         |----|  \                 
|-9-|           |-11-|                         |-12-|   \ x5               
|-7-|           |-9--|                         |-12-|   /               
|---|xalot then:|----|x a couple of times then:|-10-|  /
                                                      /
then back up to ^^^^^ -------------------------------/

and on the last time do everything the same except play
|-----------------------|
|-----------------------|
|-----------------------|
|-12--12-12--9----------|
|-12--12-12--9----------|
|-10--10-10--7----------|

|---------12-12-12-12-12--12-12-|
|---------12-12-12-12-12--12-12-|
|---------12-12-12-12-12--12-12-|
|-7---5-------------------------|
|-5---5-------------------------|
|-5---3-------------------------|x2


|-12-12-12-12-12--12-12--14-14-14-14-14-14-14--14-14-|
|-12-12-12-12-12--12-12--15-15-15-15-15-15-15--15-15-|
|-12-12-12-12-12--12-12--14-14-14-14-14-14-14--14-14-|
|----------------------------------------------------|
|----------------------------------------------------|
|-----------------------------------------------------|x2

|-----------------------|
|-----------------------|
|-----------------------|
|-12--12-12--9----------|
|-12--12-12--9----------|
|-10--10-10--7----------|

do this little part a couple of times then:

|-----------------------------------------|
|-----------------------------------------|
|-----------------------------------------|
|-5555555555555555-77-9999999999999999-77-|
|-5555555555555555-77-9999999999999999-77-|
|-3333333333333333-55-7777777777777777-55-|
                      ^^^^^^^^^^^^^^^^                       
sometimes play this instead of this:

|---9--9--9--9--9--9-|
|---9--9--9--9--9--9-|
|---9--9--9--9--9--9-|
|-99-99-99-99-99-99--|
|-99-99-99-99-99-99--|
|-77-77-77-77-77-77--|

ya those are all the parts prety much...im too lazy to put the rest of the song up
but its pretty repetitive so you can figure it out. feel free to make corrections.
Related for Little Dawn tab