Song name
# A B C D E F G H I J K L M N O P Q R S T U V W X Y Z

Ted Leo - Gold Finch And The Red Oak Tree tab

As per usual, listen to the song for the timing. There's a bit of a break at the 
of the chorus (filled in with the strings) so if you're playing this solo, you can just fill 
space with more C chords. Enjoy


Verses
e---------------------------------------------|
B--1--1--1--1p0-0--0--3--3-3p1----1--1--1--1--|
G--2---0-0-0----0-0---2-2-----2p0-0---0-0---0-|
D----2---------------0-0--0---------2-----2---| x2
A-0-0----------------------------3-3---3-3----|
E-------3-3----3-3--3-------------------------|


Chorus
e-0---------0-----0-----1p0-------------------|
B-1---1--1---1-1---1-3-----3p1----1--1--1--1--|
G-0----0-2-2---2-2---2-2------2p0-0---0-0---0-|
D-2--2--3-3---3-3---0-0-------------2-----2---| x2
A-3-3----------------------------3-3---3-3----|
E---------------------------------------------|

Then after a few times, for the last verse, it goes like this:
e------------------------1p0--------------------|
B--1--1--1--1p0-0--0--3-----3p1----1--1---3-3h5-|
G--2---0-0-0----0-0---2-2------2p0-0---0--------|
D----2---------------0-0-------------2----------|
A-0-0-----------------------------3-3---3-3-3---|
E-------3-3----3-3--3---------------------------|
Tap to rate this tab
 
# A B C D E F G H I J K L M N O P Q R S T U V W X Y Z