Guitaretab - guitar tabs
Song name
# A B C D E F G H I J K L M N O P Q R S T U V W X Y Z

Ted Leo - Bleeding Powers tab

-------------------------------------------------------------------------------
	Bleeding Powers  Ted Leo and The Pharmacists
-------------------------------------------------------------------------------
Tabbed by: Junkiechrist
Email: dragoonfive0@yahoo.com

Tuning: Standard
           G	      E	         B  	      A        C      C`
e|----------------------------------------------------------------------------|
B|----------------------------------------------------------------------------|
G|----------9------------------5----------------------------------------------|
D|----5-----9-----9------3-----5----10----------------------------------------|
A|----5-----7-----9------3-----3----10----------------------------------------|
E|----3------------7------5-----------8---------------------------------------|

(Palm mute chords)
G						     E		B
All the time you were keeping me straight I was bleeding powers
G					       E		B
In my mind it was never too late, and the days were hours
A			    G		E	         B
And sure the waves still make spray at the old sea wall...
B	  G	        E		    B	   A		    B
And the road leads somewhere, but it's not yet to your door
B	  G	        E		    B	   A		    G
And the road leads somewhere, but it's not yet to your door
G C G C
(Continue formula with unpalm mute chords)
Let's go down to the old South End, where we used to meet
Take me back to the basements and alleys on Walbridge Street
Ah, but it'll only make me sadder when I can't conjure ghosts no more

And the road leads somewhere, but it's not yet to your door
And the road leads somewhere, but it's not yet to your door
(solo)
e|------/12---------12-12-12-12-12---------------------------------------------|
B|-----/12-(trill)--13-12-13-12-12---12--------12-------12---------------------|
G|-----/12---------12-12-12-12-12---14b(16)-14b(16)-14b(16)--------------------|
D|-----------------------------------------------------------------------------|
A|-----------------------------------------------------------------------------|
E|-----------------------------------------------------------------------------|
[ Tab from: http://www.guitaretab.com/t/ted-leo/98567.html ]
e|-----------------------------------------------------------------------------|
B|---12--12---------------12h13p12---------12h13p12----------------------------|
G|---14--14--------12---------------------12-----------------------------------|
D|---------------14---------------------14-------------------------------------|
A|-----------------------------------------------------------------------------|
E|-----------------------------------------------------------------------------|

e|----15--12-------------------------------------------------------------------|
B|-------------15--12----------------------------------------------------------|
G|-----------------------14--12------------------------------------------------|
D|---------------------------------14--12x14-x14-x14-x14----------------------|
A|-----------------------------------------------------------------------------|
E|-----------------------------------------------------------------------------|

e|------------------------------------------------------------------------------|
B|------------------------------------------------------------------------------|
G|------------------------------------------------------9---9---9-9-------------|
D|--7-7-7---7---7---7---5-5---------------5-7/9---9---9---9-9---9--9------------|
A|--7-7-7---7---7---7---5-5-------3-5-7----------7---7---7-7---9--9-------------|
E|--5-5-5---5---5---5---3-3---3h5-------------------------------7--7------------|
 (Palm mute)
All the time you've spent working away, well you've done more than your part
All the times you only wanted your say, not their slings and darts
And still you couldn't let them drown in their own hate no more

And the road leads somewhere, but it's not yet to your door
And the road leads somewhere, but it's not yet to your door
	  E		   B		    A		     B
And you still see people waiting for the next excuse for war

B	  G	        E		    B	   A		    B
And the road leads somewhere, but it's not yet to your door
B	  G	        E		    B	   A		    C`
And the road leads somewhere, but it's not yet to your door
B	  G	        E		    B	   A		    G
And the road leads somewhere, but it's not yet to your door
G C G C G C E

| /  slide up
| \  slide down
| h  hammer-on
| p  pull-off
| ~  vibrato
| +  harmonic
| x  Mute note
===============================================================================
Related for Bleeding Powers tab