Guitaretab - guitar tabs
Song name
# A B C D E F G H I J K L M N O P Q R S T U V W X Y Z

Ted Nugent - Take It Or Leave It tab

                        Take it or leave it-Ted Nugent
I only tabbed out the rhythm but fell free to tab out the solo if you can

Intro:
E----------|      play this in time with the song until he says “take it”
B----------|
G----------|
D---2-2-2--|
A---0-0-0--|
E----------|

[ Tab from: http://www.guitaretab.com/t/ted-nugent/163231.html ]
Chorus:
E----------------------|
B----------------------|
G----------------------|
D-9-9-7-7--------------|
A-7-7-5-5- --5-5-7-7---|
E------------3-3-5-5---|

Verse:
E--------------------|
B--------------------|
G--------------------|      play this for the whole verse then go back to the chorus
D-- 5-5/7-7-7--------|
A-- 5-5/7-7-7--------|
E---3-3/5-5-5--------|
Related for Take It Or Leave It tab