Guitaretab - guitar tabs
Song name
# A B C D E F G H I J K L M N O P Q R S T U V W X Y Z

Ted Nugent - Call Of The Wild tab

                         CALL OF THE WILD-TED NUGENT

tabbed by: WTF?
tuning standard

e:------------------------------------------------------------------|
B:-11--9--8--8-8-8------9--7--6--6-6-6----7--5--4--4-4-4---5h7------|
G:-11--9--8--8-8-8------9--7--6--6-6-6----7--5--4--4-4-4---5h7------|
D:-9---9--8--8-8-8------7--7--6--6-6-6----5--5--4--4-4-4---5h7------|
A:---------------------------------------------------------0--------|
E:------------------------------------------------------------------|
[ Tab from: http://www.guitaretab.com/t/ted-nugent/168439.html ]
e:-------------------------------------------------------------------|
B:-11--9--8--9--11-----9--7--6--7--9-----7--5--4--5--7---5h7---------|
G:-11--9--8--9--11-----9--7--6--7--9-----7--5--4--5--7---5h7---------|
D:-9---9--8--9--9------7--7--6--7--7-----5--5--4--5--5---5h7---------|
A:-------------------------------------------------------0-----------|
E:-------------------------------------------------------------------|

e:------------------------------------------------------------------|
B:--8s9--11--9--8----6s7--9--7--6----4s5--7--5--4-------------------|
G:--8s9--11--9--8----6s7--9--7--6----4s5--7--5--4-------------------|
D:--8s9--9---9--8----6s7--7--7--6----4s5--5--5--4-------------------|
A:------------------------------------------------------------------|
E:------------------------------------------------------------------|

| /  slide up
| \  slide down
| h  hammer-on
| p  pull-off
| ~  vibrato
| +  harmonic
| x  Mute note

and thats what i have so far
Related for Call Of The Wild tab
Advertisement will be closed in 10 seconds