Song name
# A B C D E F G H I J K L M N O P Q R S T U V W X Y Z

Ted Nugent - Cat Scratch Fever tab

e|---------------------------------------------------------
B|----6hb--4-----------------------------------------------
G|-----------------2---4---5-5----2--4--2--5---------------
D|-----------------2---4---5-5----2--4--2--5---------------
A|-----------------2---------------------------------------
E|---------------------------------------------0-3-4-------

e|---------------------------------------------------------
B|---------------------------------------------------------
G|----2---4---5-5---4/5--4---------------------------------
D|----2---4---5-5---4/5--4---------------------------------
A|----2----------------------------------------------------
E|----------------------------0-3-4------------------------


Notes: This is my first tab ever created and sorry I only got the beginig riff.
Rate my tab so I know if people want me to make another tab. And give requests.
Tap to rate this tab
# A B C D E F G H I J K L M N O P Q R S T U V W X Y Z