Song name
# A B C D E F G H I J K L M N O P Q R S T U V W X Y Z

Ted Nugent - Scream Dream tab

e-------------------------------------------------------------------------------------------|
b-------------------------------------------------------------------------------------------|
g-------2-----2------2--------5---5/7--------2----2----2------7--7/5------------------------|
d-------2-----2------2--------5---5/7--------2----2----2------7--7/5------------------------|
a--0-0----0------0--------0---3---3/5---0-0-----0----0----0---5--5/3------------------------|
E-------------------------------------------------------------------------------------------|


e----------------------------------------------------------------------------------------|
b----------------------------------------------------------------------------------------|
g------2----2----2-----5--5/7------------------7br---------------------------------------|
d------2----2----2-----5--5/7-------------5-7--------7-5---------------------------------|
a-0-0-----0----0---0---3--3/5--------5--7------------------7-5---------------------------|
E------------------------------------------------------------------8--5------------------|
Tap to rate this tab
 
# A B C D E F G H I J K L M N O P Q R S T U V W X Y Z