Song name
# A B C D E F G H I J K L M N O P Q R S T U V W X Y Z

Ted Nugent - Pussywhipped tab

This is just the rhythm parts of the song, intro, main riff, and solo rhythm.  This
sounds right to me, if you have trouble try listening to the song.. it's #9 on the
Craveman CD.  Feel free to update if you think this is wrong.

Intro:

I..... am......

e|--------------|
B|--3----5------|
G|--2----4------|
D|--0----2------|
A|--0-----------|
E|--------------|

Main Riff (played during verse):

e|-----------------------------------------------------------------|
B|-----------------------------------------------------------------|
G|-2-4-2-4-2-4-77-6------------------------------------------------|
D|-2-4-2-4-2-4-77-6------------------------------------------------|
A|-0-2-0-2-0-2-55-4------------------------------------------------|
E|-----------------------------------------------------------------|

Rhythm during solo:

e|-----------------------------------------------------------------|
B|-----------------------------------------------------------------|
G|-2-4-2-4-2-2-4-2-77-6--------------------------------------------|
D|-2-4-2-4-2-2-4-2-77-6--------------------------------------------|
A|-0-2-0-2-0-0-2-0-55-4--------------------------------------------|
E|-----------------------------------------------------------------|
Tap to rate this tab
# A B C D E F G H I J K L M N O P Q R S T U V W X Y Z