Song name
# A B C D E F G H I J K L M N O P Q R S T U V W X Y Z

Ted Nugent - Wango Tango tab

Help us improve GuitareTab! Take a short survey!
                             TED NUGENT
                             WANGO TANGO


STANDARD TUNING
EADGBe


----------------------------------------|
----------------------------------------|
---2---2---2---2---2---2---2---2---2----|
---2---2---2---2---2---2---2---2---2----|
---0---0---0---0---0---0---0---0---0----|
-----3---3---3---3---3---3---3---3---3--|
thats the intro
its repeated throughout a lot of the song
just listen to the song and get the rhythm

these are somes licks played in between
----------------------------------------------------------|
---7br7-5------7br7-5----------------7br7-----------------|
---7br7-5------7br7-5----------------7br7-----------------|
----------7-----------7-5-----------------7-5-------------|
--------------------------7-5-----------------7-5-3-------|
------------------------------3-5-------------------3-5---|

im still workin on the solo
good song
Related for Wango Tango tab