Guitaretab - guitar tabs
Song name
# A B C D E F G H I J K L M N O P Q R S T U V W X Y Z

Ted Wulfers - Escape tab

Hi everybody, this is a tab for Escape, an incredible song by an incredible band. Best 
I've heard in a while so if you have any questions email me.
Wearethefury015@yahoo.com
Maybe i will cover it on youtube to show people how to play it, my video camera is 
though so it might take a while.
www.youtube.com/ieatsouls771
Also, their myspace is www.myspace.com/ourlastnight

This song is played in c#
c# g# c# f# a# d#
or
c# g# c# f# b(flat) e(flat). I think thats right, depending on what your tuner says. If 
get confused, I think its just a half step down, then drop the low string.

Ill try to put both guitars, but I only know some lead guitar parts.
Guitar 1 (0:00)
D#|----------------------------------------------------------------------|
A#|----------------------------------------------------------------------|
F#|------5--------5---------5--------5------5----------------------------|
C#|----3--------3--------3--------3------3-----3-------------------------|
G#|--5--------0-------1--------1------1----------------------------------|
C#|----------------------------------------------------------------------|
Guitar 2                       (x2)
D#|----------------------------------------------------------------------|
A#|----------------------------------------------------------------------|
F#|----------------------------------------------------------------------|
C#|----------------------------------------------------------------------|
G#|--5--------0-------1--------1------1----------------------------------|
C#|----------------------------------------------------------------------|
                                (x2)

Guitar 1 (0:05)
D#|----------------------------------------------------------------------|
A#|----------------------------------------------------------------------|
F#|---7------2-----3---------------5-------------------------------------|
C#|---7------2-----3--------3------x-------------------------------------|
G#|---5------0-----1--------3------3-------------------------------------|
C#|---x3-----x3----x10------3-----x10------------------------------------|
                           x6
             (x3)
Guitar 2
D#|--------------------6--5--3--5----------------------------------------|
A#|----10-6-5-6-8-6-5----------------------------------------------------|
F#|----------------------------------------------------------------------|
C#|----------------------------------------------------------------------|
G#|----------------------------------------------------------------------|
C#|----------------------------------------------------------------------|


Guitar 1 (0:16)
D#|----------------------------------------------------------------------|
A#|----------------------------------------------------------------------|
F#|---7------2-----3-------10-----5--------------------------------------|
C#|---7------2-----3-------x------x--------------------------------------|
G#|---5------0-----1-------8------3--------------------------------------|
C#|---x3-----x3----x10-----x6--------------------------------------------|
             (x3)
Guitar 2
D#|--------------------6--5--3--5----------------------------------------|
A#|----10-6-5-6-8-6-5----------------------------------------------------|
F#|----------------------------------------------------------------------|
C#|----------------------------------------------------------------------|
G#|----------------------------------------------------------------------|
C#|----------------------------------------------------------------------|

Guitar 1/2(0:26)
D#|---------------------------------5-8-5-3-5-3-------------------------------------------|
A#|--10-6-5-6-8-6-5-5-6-------6-5-3-------------------------------------------------------|
F#|------------------------------------------------------------------999-9/10-101010-10/12|
C#|---------------------------------------------------------------------------------------|
G#|------------------------------------------------7-8---5-8----0----777-7/8--8-8-8--8/10-|
C#|----------------------------------------------------0-----00---------------------------|
                                                       x     xx

Guitar 1 Not sure about guitar 2. (0:39)(When Trevor Screams, "So I"
Play a F#| 9 10 9 10 10
D#|-----------------------------------------------------------------------------------------------|
A#|-----------------------------------------------------------------------------------------------|
F#|10-10-12p10-12p10-9-10-----10-10-12p10-9h10-9h10---10-10-12p10-12p10-9-10--10-10-12p10-12h14p12|
C#|-----------------------------------------------------------------------------------------------|
G#|-----------------------------------------------------------------------------------------------|
C#|-----------------------------------------------------------------------------------------------|
    x  x             x         x  x
                                                      x2

--Chorus--

Guitar 1/2 (0:50)
D#|----------------------------------------------------------------------|
A#|----------------------------------------------------------------------|
F#|----------------------------------------------------------------------|
C#|0-----5----7-------0-----8-----5--5-5--3------------------------------|
G#|0-----5----7-------0-----8-----5--5-5--3------------------------------|
C#|0-----5----7-------0-----8-----5--5-5--3------------------------------|
   x16   x8   x8     x16    x8    x4 x x

                                       (x2)
Guitar 1 (1:13)
D#|--------------------------------------------------------------------------------------------|
A#|--------------------------------------------------------------------------------------------|
F#|-----2--------------------------------------------------------------------------------------|
C#|0----3--0--000--7--00-0-0-------------------------8-888-------10----------------77----------|
G#|0-------0--000---8-00-0-0--1010-8-7-8-7-55-33-55--8-888-8-7------8--55-88-77-55----55-88-444|
C#|0-------0--000-----00-0-0-------------------------8-888-----8-------------------------------|
              xxx     xx x x   x x x x x x xx xx xx    xxx     x
                                            (x3)
Guitar 2
D#|----------------------------------------------------------------------|
A#|----------------------------------------------------------------------|
F#|----------------------------------------------------------------------|
C#|0-------------------------------------------------8-------------------|
G#|0-------------------------------------------------8-------------------|
C#|0-------------------------------------------------8-------------------|
Once and then next 2 times play same as guitar 1.


Guitar 1/2. (1:34)
D#|----------------------------------------------------------------------|
A#|-----------------------------6----------------------------------------|
F#|-----------------------------9----------------------------------------|
C#|0-0-0----0000-00--0-0-00-0-0---00-0-0---------------------------------|
G#|0-0-0-55-0000-00-3-3--00-0-0---00-0-0-5-7-8-10-4*---------------------|
C#|0-0-0----0000-00------00-0-0---00-0-0---------------------------------|
                                   (x2)
Guitar 1/2 (1:47)
D#|-----------------------------------------------------------------=----|
A#|----------------------------------------------------------------------|
F#|------------------5+----10-9-5-7/9------------------------------------|
C#|0-0-0----0000-00------------------10-7--------------------------------|
G#|0-0-0-55-0000-00------------------------------------------------------|
C#|0-0-0----0000-00------------------------------------------------------|

[ Tab from: http://www.guitaretab.com/t/ted-wulfers/121545.html ]
Guitar 1/2 (1:52)
D#|----------------------------------------------------------------------|
A#|----------------------------------------------------------------------|
F#|----------------------------------------------------------------------|
C#|8--7--10--12----------------------------------------------------------|
G#|8--7--10--12---------(listen to the strumming)------------------------|
C#|8--7--10--12----------------------------------------------------------|
   x5 x8 x6 x10

Guitar 1 (1:57)
D#|-------------------------------------------------------------------------------|
A#|-------------------------------------------------------------------------------|
F#|55-------22-----------------------2-5-------------------2-5--------------------|
C#|---22-33----22-33-55-33-----3p2-------3-2-3h2-----3p2-------3-2-3-5-3-2-3-5-3-2|
G#|-------------------------------3h5-------------------3h5-----------------------|
C#|---------x2--------------------------------------------------------------------|

Guitar 1 (2:10)
D#|---------------------------------------------------------------------------|
A#|---------9-13----------------------9-13------------------------------------|
F#|10p9----------10-9-10p9---10p9----------10-9-10-12-10-9-10-12-10-9---------|
C#|----10h12---------------------10h12----------------------------------------|
G#|---------------------------------------------------------------------------|
C#|---------------------------------------------------------------------------|

Guitar 2 (1:52-2:15)
A#|----------------------------------------------------------------------|
F#|----------------------------------------------------------------------|
C#|8--7--10--12----------------------------------------------------------|
G#|8--7--10--12---------(listen to the strumming)------------------------|
C#|8--7--10--12----------------------------------------------------------|


Guitar 1 (2:16)
D#|----------------------------------------------------------------------|
A#|----------------------------------------------------------------------|
F#|----------------------------------------------------------------------|
C#|----00-0-7----------------------------00-0-7--------------------------|
G#|8-8-00-0--8-7-8-8-10-8-7-7-7-7-7--8-8-00-0--8-7-8-8-10-8-7----10------|
C#|-0--00-0-------0-------------------0--00-0-------0----------8----10---|

Guitar 2
D#|---------------------------------------------------------------------------|
A#|---------------------------------------------------------------------------|
F#|101010-999-101010-999-1010-99-9-9-9-9-101010-999-101010-999-1010-99-10-9-5b|
C#|---------------------------------------------------------------------------|
G#|---------------------------------------------------------------------------|
C#|---------------------------------------------------------------------------|

(Chorus)(2:25)

(afterchorus?) (2:48)
Guitar 1/2 (This is where i dont know the lead guitar, i can hear it in my head but cant 
to find the notes.)
D#|----------------------------------------------------------------------|
A#|----------------------------------------------------------------------|
F#|----------------------------------------------------------------------|
C#|8----0----------------------------------------------------------------|
G#|8----0----------------------------------------------------------------|
C#|8----0----------------------------------------------------------------|
   x32  x32
                                    (x2)
Guitar 1 (3:11)
D#|----------------------------------------------------------------------|
A#|--(OH!)---------------------------------------------------------------|
F#|-----------5----------------------------------------------------------|
C#|8-----0----x----------------------------------------------------------|
G#|8-----0----3----------------------------------------------------------|
C#|8-----0---------------------------------------------------------------|
   x30  x24   x8

Guitar 2 (2:48-3:21)(Whole time just strum this chord and stop at the "oh!")
D#|----------------------------------------------------------------------|
A#|----------------------------------------------------------------------|
F#|-----10---------------------------------------------------------------|
C#|-----x----------------------------------------------------------------|
G#|-----8----------------------------------------------------------------|
C#|----------------------------------------------------------------------|

Guitar 1 (3:24)(For how ever many times it lasts until the breakdown)
D#|5----8------------------------------------------121212121212121313131313131313-|
A#|-5-6---------------------------------------------------------------------------|
F#|-------------------------------------------------------------------------------|
C#|-------------------------------------------------------------------------------|
G#|-------------------------------------------------------------------------------|
C#|-------------------------------------------------------------------------------|

Guitar 2
D#|----------------------------------------------------------------------|
A#|----------------------------------------------------------------------|
F#|------5---5-----------3----3-----5----5-------------------------------|
C#|0--0--x---x-----------x----x-----x----x-------------------------------|
G#|0--0--3---3-----------1----1-----3----3-------------------------------|
C#|0--0------------------------------------------------------------------|
        x2                      x2

Guitar 2 (4:06)
D#|----------------------------------------------------------------------|
A#|----------------------------------------------------------------------|
F#|----------------------------------------------------------------------|
C#|-0-000-000-000-000-0-0------------------------------------------------|
G#|-0-000-000-000-000-0-0------------------------------------------------|
C#|-0-000-000-000-000-0-0------------------------------------------------|
    x xxx xxx xxx xxx x x
                                 (x4)
Guitar 1 and 2 switch off (4:21)
D#|----------------------------------------------------------------------|
A#|----------------------------------------------------------------------|
F#|----------------------------------------------------------------------|
C#|-0-000-000--5+5+5+--000-----------------------------------------------|
G#|-0-000-000----------000-----------------------------------------------|
C#|-0-000-000----------000-----------------------------------------------|
    x xxx xxx          xxx

Guitar 1/2 (4:23)
D#|----------------------------------------------------------------------|
A#|----------------------------------------------------------------------|
F#|----------------------------------------------------------------------|
C#|-0-000-000-000-000-0-0-0-000-000--t7p0-3-t7p0-2-t7p0-3-t7p0-2---------|
G#|-0-000-000-000-000-0-0-0-000-000--------------------------------------|
C#|-0-000-000-000-000-0-0-0-000-000--------------------------------------|

D#|----------------------------------------------------------------------|
A#|----------------------------------------------------------------------|
F#|----------------------------------------------------------------------|
C#|-0-000-000-000-000-0-0-0-000-000---777---888--------------------------|
G#|-0-000-000-000-000-0-0-0-000-000------555----444----------------------|
C#|-0-000-000-000-000-0-0-0-000-000--------------------------------------|
                                    (x2)
| /  slide up
| \  slide down
| h  hammer-on
| p  pull-off
| ~  vibrato
| +  harmonic
| x  Mute note
| *  Pinched Harmonic
===============================================================================
Related for Escape tab