Guitaretab - guitar tabs
Song name
# A B C D E F G H I J K L M N O P Q R S T U V W X Y Z

Teddy Geiger - Better Now tab

This is an unreleased song called Better Now that Teddy Geiger has performs at his 
within the past few months.

[ Tab from: http://www.guitaretab.com/t/teddy-geiger/147845.html ]
e|------------------------------------------------------------|
b|------------------------------------------------------------|
g|-----------------------------------0----2-0-----0----2-0----|
d|-----0----2-0-------0----2-0-----2---2--------2---2---------|
a|---2---2----------2---2--------3------------3---------------|
e|-3--------------3-------------------------------------------|


e| ---x----------------------------------------------|
b| ---0-0h1------------------------------------------|
g| ---0----------------------------------------------|
d| ---2-----------0-----0--0--0----------------------|
a| ---2---------2---2---2--0--2----------------------|
e| ---x-------3---------3--0--3----------------------|

Iím not 100% sure about the last part. The strumming, Iím still tying to figure out (as 
see I didnít tab that part).

~GuitarHead27~
Related for Better Now tab