Guitaretab - guitar tabs
Song name
# A B C D E F G H I J K L M N O P Q R S T U V W X Y Z

Teddy Geiger - Sweeter Than The Truth tab

Highlighted       Show chord diagrams
whenever you see tabs..they are actuallyjust chords but i can't remember the
names of them...just play them with like normal chors to the rythem of the song)

G                  Em
I broke down and let them save you
a C but without 3rd finger on the 3rd fret.......then a C
Oh, and the car pulled out the driveway
Wave goodbye, itís been so long
G                  Em
You took that medicine they gave you
(a C but without 3rd finger on the 34d fret.......then a C)
Oh, are you felling any better?
Cuz itís looking like you arenít
e|-3----------------------------------3-------------------------------------|
B|-3----------------------------------3-------------------------------------|
G|------------------------------------2-------------------------------------|
D|-2------------------------------------------------------------------------|
A|--------------------------------------------------------------------------|
E|--------------------------------------------------------------------------|
Since they took you away
Iíve been thinking and Iíve got a lot to say (play those 2 tabs with the same rhythem as 
other chords before that)

Chorus: these are chords but i cant remember

[ Tab from: http://www.guitaretab.com/t/teddy-geiger/176576.html ]
e|-3-----------3------------3-----------3-------------------------------------|
B|-3-----------3------------3-----------3-------------------------------------|
G|------------------------------------- 2-------------------------------------|
D|-2-----------2--------------------------------------------------------------|
A|-2-----------3------------2-------------------------------------------------|
E|--------------------------3-------------------------------------------------|
I brought a picture of us
Do you remember when we used to get together,
Hold hands, and say forever baby?
e|-3-----------3-----------------------3-------------------------------------|
B|-3-----------3-----------------------3-------------------------------------|
G|-------------------------------------2-------------------------------------|
D|-2-----------2-------------------------------------------------------------|
A|-2-----------3-------------------------------------------------------------|
E|---------------------------------------------------------------------------|
How could we get back to that place?
e|-3-----------3------------3-----------3-------------------------------------|
B|-3-----------3------------3-----------3-------------------------------------|
G|------------------------------------- 2-------------------------------------|
D|-2-----------2--------------------------------------------------------------|
A|-2-----------3------------2-------------------------------------------------|
E|--------------------------3-------------------------------------------------|
I said I didnít but I, I really missed ya
All the things in my life
Every one of them reminds me of you
e|-3-----------3---------------3-------3-------------------------------------|
B|-3-----------3---------------3-------3-------------------------------------|
G|---------------------------------------------------------------------------|
D|-2-----------2---------------2-------2-------------------------------------|
A|-2-----------3---------------2-------3-------------------------------------|
E|---------------------------------------------------------------------------|
Well Iíll never get back
These memories and photographs
e|-3--------------------------------------------------3----------------------|
B|-3--------------------------------------------------3----------------------|
G|-2-------------------------------------------------------------------------|
D|----------------------------------------------------2----------------------|
A|----------------------------------------------------2----------------------|
E|---------------------------------------------------------------------------|
Maybe itís just better I remember these pictures
So much sweeter than the truth

repeat verse one
Without you angerís lost its flavor
Oh, no more yelling, no more fighting
So I leave the T.V. on
With no pay-per-view or cable
Sings as sweetly as my baby
Oh I miss it everyday
Since they took you away
Iíve been waiting just to hear you say my name

Chorus: played the same
I brought a picture of us
Do you remember when we used to get together,
Hold hands, and say forever baby?
How could we get back to that place?
I said I didnít but I, I really missed ya
All the things in my life
Every one of them reminds me of you
Weíll never get back
These memories and photographs
Maybe itís just better I remember these pictures
So much sweeter than the truth

(this bit played pretty much the same as the chorus....with the same chords but you 
use down strokes only)
So many nights, so many days away
And I thought life without you would be easy living


Chorus:
I brought a picture of us
Do you remember when we used to get together,
Hold hands, and say forever baby?
Well, how could we get back to that place?
I said I didnít but I, I really missed ya
All the things in my life
Every one of them reminds me of you
Well weíll never get back
These memories and photographs
Maybe itís just better I remember these pictures
So much sweeter than the truth
Related for Sweeter Than The Truth tab