Song name
# A B C D E F G H I J K L M N O P Q R S T U V W X Y Z

Teddy Geiger - Shes On My Mind tab

-------------------------------------------------------------------------------
			     SONG NAME - Band Name
-------------------------------------------------------------------------------
Tabbed by: Nick Raff
Email: nick_raff25@hotmail.com

Tuning: standard

e|-------------------------------------------------------------------------|
B|-------------------------------------------------------------------------|
G|-------------------------------------------------------------------------|
D|7-7-7-7-7-7-7-7-7---7-7-7-7-7-7-9b^10-9b^10-7-7-7-7-7-7-7-7-7-9b10-9b10-7|
A|-----------------7h9-----------------------------------------------------|
E|-------------------------------------------------------------------------|

e|-------------------------------------------------------------------------|
B|--------10-------10-10-------10-10--12b13--10--10--10--------------------|
G|-7s9-11----7s9-11-----7s9-11-------------------------11------------------|
D|-------------------------------------------------------------------------|
A|-------------------------------------------------------------------------|
E|-------------------------------------------------------------------------|

e|-------------------------------------------------------------------------|
B|-10-10-------------------------------------------------------------------|
G|-------11---9------------------------------------------------------------|
D|----------11--11---------------------------------------------------------|
A|-------------------------------------------------------------------------|
E|-------------------------------------------------------------------------|

e|-------------------------------------------------------------------------|
B|-------------------------------------------------------------------------|
G|-------------------------------------------------------------------------|
D|-11-9-7-9-9~-9b10-7------------------------------------------------------|
A|-------------------------------------------------------------------------|
E|-------------------------------------------------------------------------|


| /  slide up
| \  slide down
| h  hammer-on
| p  pull-off
| ~  vibrato
| +  harmonic
| x  Mute note
===============================================================================
Tap to rate this tab
 
# A B C D E F G H I J K L M N O P Q R S T U V W X Y Z