Song name
# A B C D E F G H I J K L M N O P Q R S T U V W X Y Z

Teddybears Stockholm - Punkrocker tab

----------------------------------------------------------------------------
		    Punkrocker - Teddybears Stockholm
----------------------------------------------------------------------------
Tabbed by: Jaden Sherrard

This is that riff in the background
that is being played through the whole song
e|--x---------|
B|--x---------|
G|--x----10---|
D|----x--x----|
A|----x--8----|
E|----x-------|

Verse
e|----------------------------------------------------------------|
B|----------------------------------------------------------------|
G|----------------------------------------------------------------|
D|--1010101010101010-\-3-3-3-3-3-3-3-3-/-7-7-7-7-7-7-7-7-7-7-7-7--|
A|--8-8-8-8-8-8-8-8--\-1-1-1-1-1-1-1-1-/-5-5-5-5-5-5-5-5-5-5-5-5--|
E|----------------------------------------------------------------|

Chorus
This is the same riff as the Verse but it seems to have more of an impact on
the A and E strings.
e|-----------------------------------------------------------------|
B|-----------------------------------------------------------------|
G|-----------------------------------------------------------------|
D|-----------------------------------------------------------------|
A|--1515151515151515-\-8-8-8-8-8-8-8-8-/---------------------------|
E|--1313131313131313-\-6-6-6-6-6-6-6-6-/-101010101010101010101010--|


Thats it, Have fun with it.
Tap to rate this tab
 
# A B C D E F G H I J K L M N O P Q R S T U V W X Y Z