Song name
# A B C D E F G H I J K L M N O P Q R S T U V W X Y Z

Teddyloid - D City Rock Anarchy tab

Tuning: Drop D


Intro: (repeat 2x)

E|--------------------------------------------------------------|
B|--------------------------------------------------------------|
G|--------------------------------------------------------------|
D|--8-8--8-8--8-8--8-8--7-7--7-7--7-7--7-7--8-8--8-8--8-8--8-8--|
A|--8-8--8-8--8-8--8-8--7-7--7-7--7-7--7-7--8-8--8-8--8-8--8-8--|
D|--8-8--8-8--8-8--8-8--5-5--5-5--5-5--5-5--6-6--6-6--6-6--6-6--|

E|------------------------------|
B|------------------------------|
G|------------------------------|
D|--10-10--10-10--10-10--10-10--|
A|--10-10--10-10--10-10--10-10--|
D|--8--8---8--8---8--8---8--8---|

Verse 1: (repeat 4x)

E|--------------------------------------------------------------|
B|--------------------------------------------------------------|
G|--------------------------------------------------------------|
D|--8-8--8-8--8-8--8-8--7-7--7-7--7-7--7-7--8-8--8-8--8-8--8-8--|
A|--8-8--8-8--8-8--8-8--7-7--7-7--7-7--7-7--8-8--8-8--8-8--8-8--|
D|--8-8--8-8--8-8--8-8--5-5--5-5--5-5--5-5--6-6--6-6--6-6--6-6--|

E|------------------------------|
B|------------------------------|
G|------------------------------|
D|--10-10--10-10--10-10--10-10--|
A|--10-10--10-10--10-10--10-10--|
D|--8--8---8--8---8--8---8--8---|

(Garterbeltů)

E|-------------------------------------------------|
B|-------------------------------------------------|
G|-------------------------------------------------|
D|--x-8---x-8---x-8---x-8---x-7---x-7---x-7---x-7--|
A|--x-8---x-8---x-8---x-8---x-7---x-7---x-7---x-7--|
D|--x-8---x-8---x-8---x-8---x-7---x-7---x-7---x-7--|

E|-------------------------------------------------|
B|-------------------------------------------------|
G|-------------------------------------------------|
D|--x-5---x-5---x-5---x-5---x-3---x-3---x-3---x-3--|
A|--x-5---x-5---x-5---x-5---x-3---x-3---x-3---x-3--|
D|--x-5---x-5---x-5---x-5---x-3---x-3---x-3---x-3--|

(repeat 2x)
On the second time, play only one 
E|---------|
B|---------|
G|---------|
D|---x-3---|
A|---x-3---|
D|---x-3---|

Chorus: (Anarchy..)
E|--------------------------------------------------------------------------|
B|--------------------------------------------------------------------------|
G|--------------------------x-7---x-7---x-7---x-7---x-8---x-8---x-8---x-8---|
D|--x-8---x-8---x-8---x-8---x-7---x-7---x-7---x-7---x-8---x-8---x-8---x-8---|
A|--x-8---x-8---x-8---x-8---x-5---x-5---x-5---x-5---x-6---x-6---x-6---x-6---|
D|--x-8---x-8---x-8---x-8---------------------------------------------------|

E|------------------------------|
B|------------------------------|
G|------------------------------|
D|--x-10---x-10---x-10---x-10---|
A|--x-10---x-10---x-10---x-10---|
D|--x-8----x-8----x--8---x--8---|

(repeat 4x)

E|--------------------------------------------------------------------------|
B|--------------------------------------------------------------------------|
G|--------------------------x-7---x-7---x-7---x-7---x-8---x-8---x-8---x-8---|
D|--x-8---x-8---x-8---x-8---x-7---x-7---x-7---x-7---x-8---x-8---x-8---x-8---|
A|--x-8---x-8---x-8---x-8---x-5---x-5---x-5---x-5---x-6---x-6---x-6---x-6---|
D|--x-8---x-8---x-8---x-8---------------------------------------------------|

E|------------------------------|
B|------------------------------|
G|------------------------------|
D|--x-10---x-10---x-10/12---10--|
A|--x-10---x-10---x-10/12---10--|
D|--x-8----x-8----x--8/10---8---|
(repeat 2x)

Verse 2:

E|--------------------------------------------------------------|
B|--------------------------------------------------------------|
G|--------------------------------------------------------------|
D|--8-8--8-8--8-8--8-8--7-7--7-7--7-7--7-7--8-8--8-8--8-8--8-8--|
A|--8-8--8-8--8-8--8-8--7-7--7-7--7-7--7-7--8-8--8-8--8-8--8-8--|
D|--8-8--8-8--8-8--8-8--5-5--5-5--5-5--5-5--6-6--6-6--6-6--6-6--|

E|------------------------------|
B|------------------------------|
G|------------------------------|
D|--10-10--10-10--10-10--10-10--|
A|--10-10--10-10--10-10--10-10--|
D|--8--8---8--8---8--8---8--8---|

(Garterbeltů)

E|-------------------------------------------------|
B|-------------------------------------------------|
G|-------------------------------------------------|
D|--x-8---x-8---x-8---x-8---x-7---x-7---x-7---x-7--|
A|--x-8---x-8---x-8---x-8---x-7---x-7---x-7---x-7--|
D|--x-8---x-8---x-8---x-8---x-7---x-7---x-7---x-7--|

E|-------------------------------------------------|
B|-------------------------------------------------|
G|-------------------------------------------------|
D|--x-5---x-5---x-5---x-5---x-3---x-3---x-3---x-3--|
A|--x-5---x-5---x-5---x-5---x-3---x-3---x-3---x-3--|
D|--x-5---x-5---x-5---x-5---x-3---x-3---x-3---x-3--|

(repeat 2x)
On the second time, play only one 
E|---------|
B|---------|
G|---------|
D|---x-3---|
A|---x-3---|
D|---x-3---|

Chorus: (Anarchy..)

E|--------------------------------------------------------------------------|
B|--------------------------------------------------------------------------|
G|--------------------------x-7---x-7---x-7---x-7---x-8---x-8---x-8---x-8---|
D|--x-8---x-8---x-8---x-8---x-7---x-7---x-7---x-7---x-8---x-8---x-8---x-8---|
A|--x-8---x-8---x-8---x-8---x-5---x-5---x-5---x-5---x-6---x-6---x-6---x-6---|
D|--x-8---x-8---x-8---x-8---------------------------------------------------|

E|------------------------------|
B|------------------------------|
G|------------------------------|
D|--x-10---x-10---x-10---x-10---|
A|--x-10---x-10---x-10---x-10---|
D|--x-8----x-8----x--8---x--8---|
(repeat 4x)


SOLO:

E|--10---10-10--10-10--10-10--10-10--10-10---10-|
B|--13------13-----13-----13-----13-----13------|
G|----------------------------------------------|
D|----------------------------------------------|
A|----------------------------------------------|
D|----------------------------------------------|

E|--8-8---------------------------8/8---10-10---10-8-------|
B|--------11-11---10-10---11-------------------------11----|
G|---------------------------------------------------------|
D|---------------------------------------------------------|
A|---------------------------------------------------------|
D|---------------------------------------------------------|

E|--10-11-13--10-11-13--10-11-13--|
B|--------------------------------|
G|--------------------------------|
D|--------------------------------|
A|--------------------------------|
D|--------------------------------|

E|--10-11-13/13-11--10-----------------|
B|---------------------13--11---10-11--|
G|-------------------------------------|
D|-------------------------------------|
A|-------------------------------------|
D|-------------------------------------|

E|------------------10-10-10-10-10-10-10-10-10-6---6~~~~--|
B|--13---11---13---13-13-13-13-13-13-13-13----------------|
G|--------=-----------------------------------------------|
D|--------------------------------------------------------|
A|--------------------------------------------------------|
D|--------------------------------------------------------|

Bridge: (repeat 2x)

E|--------------------------------------------|
B|--------------------------------------------|
G|--------------------------------------------|
D|--8~--7~--5~--3~--1~--0~--1~--3~--|
A|--8~--7~--5~--3~--1~--0~--1~--3~--|
D|--8~--7~--5~--3~--1~--0~--1~--3~--|

Chorus: (Anarchy..)

E|--------------------------------------------------------------------------|
B|--------------------------------------------------------------------------|
G|--------------------------x-7---x-7---x-7---x-7---x-8---x-8---x-8---x-8---|
D|--x-8---x-8---x-8---x-8---x-7---x-7---x-7---x-7---x-8---x-8---x-8---x-8---|
A|--x-8---x-8---x-8---x-8---x-5---x-5---x-5---x-5---x-6---x-6---x-6---x-6---|
D|--x-8---x-8---x-8---x-8---------------------------------------------------|

E|------------------------------|
B|------------------------------|
G|------------------------------|
D|--x-10---x-10---x-10---x-10---|
A|--x-10---x-10---x-10---x-10---|
D|--x-8----x-8----x--8---x--8---|
(repeat 4x)
(repeat 4x)

===end===

LYRICS: 
My name is Panty, the crazy sexy blondie 
And I'm not dumb 
I'm breaking the news, now boys! Us girls 
We're full-time horny too! 

Hey, check out that hot one, damn he's got a big 
***, delicious 
It's time to get dirty now, so will y'all excuse me 
Read the air!I'm busy! 

Garterbelt! Again you've dialed D-CITY 2-900
Pantsu line! Copy that! Clear the city! 

Anarchy!  Everyone wants to be me! 
Anarchy yeah!  Get it up so I can see! 
Anarchy!  Let it flow wild and free! 
Anarchy yeah!  Y'all ready for the gig?! 

  
By the way, my name is Stocking, I spill venom 
Stinging arrows
And I got sweet tooth for lollipops
Loli goth, I lick good! 

These stripes will strip you down 
I got no mercy for chiralism 
My fans they all love me 'cuz I kick it real tasty 
I get high being nasty! 

Garterbelt! You keep slappin' my butt around 
Pantsu line! Freaky girl comin' your way! 

Anarchy!  Everyone wants to be me! 
Anarchy yeah!  Standing ovation please! 
Anarchy!  Shake that thing wild and free! 
Anarchy yeah!  Steady ready for the gig?! 

I know you know... these wings inside of you 
I know you know... they do get naughty too 
Before I go... there's something I wanna say 
Your sleepy anarchy... Wake it up! Wake it up! 

Anarchy!  Everyone wants to be me! 
Anarchy yeah!  Get it up so I can see! 
Anarchy!  Let it flow wild and free! 
Anarchy yeah!  Y'all ready for the gig?! 

Play-along tab:
http://www.songsterr.com/a/wsa/teddyloid-ft-debra-zeer-d-city-rock-guitar-tab-s64466t0
Tap to rate this tab
# A B C D E F G H I J K L M N O P Q R S T U V W X Y Z