Song name
# A B C D E F G H I J K L M N O P Q R S T U V W X Y Z

Teen Idols - Bandwagon tab

Help us improve GuitareTab! Take a short survey!
--------------------------------------------------------------------
			 BANDWAGON - Teen Idols
--------------------------------------------------------------------

By: anthony curtis

verse:
e|-----------------------------------------|
B|-----------------------------------------|
G|-4---/6-7---9---11---7-------------------|
D|-4---/6-7---9---11---7-------------------|
A|-2---/4-5---7----9---5-------------------|
E|-----------------------------------------|

chorus:
e|------------------------------------------------|
B|------------------------------------------------|
G|-4----7---9---7---------------------------------|
D|-4----7---9---7---------------------------------|
A|-2----5---7---5---------------------------------|
E|------------------------------------------------|

verse again

then repeat chorus a couple times

end on B
Related for Bandwagon tab