Song name
# A B C D E F G H I J K L M N O P Q R S T U V W X Y Z

Teen Idols - Ketchup Soup tab

Help us improve GuitareTab! Take a short survey!
-------------------------------------------------------------
                 Teen Idols - Ketchup Soup
------------------------------------------------------------

by: Anthony curtis

Chorus sung wihtout any instruments

Verse
e|-------------|
B|-------------|
G|---9-7-------|
D|-7-9-7-7-----|
A|-7-7-5-7-----|
E|-5-----5-----|

Pre-chorus
e|-------------------|
B|-------------------|
G|--5--7-------------|
D|--5--7-------------|
A|--3--5-------------|
E|-------------------|

Chorus:
e|----------------|
B|----------------|
G|-----7----------|
D|--7--7--5--7----|
A|--7--5--5--7----|
E|--5-----3--5----|

end on A
Related for Ketchup Soup tab