Song name
# A B C D E F G H I J K L M N O P Q R S T U V W X Y Z

Teen Suicide - Give Me Back To The Sky tab

-------------------------------------------------------------------------------
                             give me back to the sky - Teen Suicide
-------------------------------------------------------------------------------
Tabbed by: G Member Kills
E-mail:

Tuning:Standard


e|--------------------------------------------------------------------------|
B|--------------------------------------------------------------------------|
G|--11-----14----11---------------------------------------------------------|
D|--12-----12----9----------------------------------------------------------|
A|--12-----13----10---------------------------------------------------------|
E|---------------0----------------------------------------------------------|

End With
e|----------------------------------------------------------------------------|
B|----------------------------------------------------------------------------|
G|---12-----------------------------------------------------------------------|
D|---12-----------------------------------------------------------------------|
A|---13-----------------------------------------------------------------------|
E|----------------------------------------------------------------------------|

Those are all the chords used, Its really simple just listen to the song for amount of 
strums an when to switch from chord to chord.
Tap to rate this tab
# A B C D E F G H I J K L M N O P Q R S T U V W X Y Z