Song name
# A B C D E F G H I J K L M N O P Q R S T U V W X Y Z

Teen Suicide - Skate Witches chords

-------------------------------------------------------------------------------
                             Skate Witches
-------------------------------------------------------------------------------

Tuning: Standard

I grouped them into chord sets. Just repeat them as needed.


1st set

guitar 1:
e|-------------------|
B|-------------------|
G|--6----9---11------|
D|--7----11--12------|
A|--7----11--12------|
E|--5----9---10------|

guitar 2:
e|----------------------------|--------------------------------|
B|--5---5--7-5----------------|--------------------------------|
G|----6--------6--repeat------|---4\6-6-4-7-7-6----------------|
D|----------------------------|--------------------------------|
A|----------------------------|--------------------------------|
E|----------------------------|--------------------------------|


2nd set
e|-------------------|
B|-------------------|
G|--2----1---6-------|
D|--4----2---7-------|
A|--4----2---7-------|
E|--2----0---5-------|


[play 1st and 2nd set again]


3rd set

guitar 1:
e|----------------------|
B|----------------------|
G|--11---9---13---14----|
D|--12---11--14---16----|
A|--12---11--14---16----|
E|--10---9---12---14----|

guitar 2:
e|--9-7------------12-9---------|
B|------10-9------------12-10---|
G|------------------------------|
D|------------------------------|
A|------------------------------|
E|------------------------------|

[play first set one last time]

guitar 2: the end is something like this 
e|--\5-----------------------------------|
B|-----5-7-5--7-5-7-5-2-5----------------|
G|--------------------------ends-in--2~--|
D|---------------------------------------|
A|---------------------------------------|
E|---------------------------------------|
Tap to rate this tab
 
# A B C D E F G H I J K L M N O P Q R S T U V W X Y Z