Song name
# A B C D E F G H I J K L M N O P Q R S T U V W X Y Z

Teen Tops - Popotitos tab

Riff 1: Intro after bass & verses 1,2, &4
e|--------------------------------|
B|--------------------------------|
G|--------------------------------|
D|---------------2-2-0------------|
A|----------2-4---------4-2-2-4-2-|
E|-0-0-3-4------------------------|

Riff 2: Verse 3
e|--------------------------------|
B|--------------------------------|
G|---------------2-2-0------------|
D|----------2-4---------4-2-2-4-2-|
A|-0-0-3-4------------------------|
E|--------------------------------|

Chorus
e|-------------------------------------|
B|-------------------------------------|
G|-------------------------------------|
D|-------------------------------------|
A|-22222222-00000000-22222222-00000000-|
E|-------------------------------------|

Solo
e|-0-0~-----------------------------------------------------------------|
B|-2-2~---------------------------------10-9-7-10-9-7-10-9-7---10-9-7---|
G|-2-2~-10-9-7-10-9-7-10-9-7---10-9-7------------------------9--------9-|
D|-2-2~----------------------9--------9---------------------------------|
A|-0-0~-----------------------------------------------------------------|
E|----------------------------------------------------------------------|

e|--------------------------------------------------------|
B|-/12-12-12-12-12--/10-10-10-10-10-(go back to 1st riff)-|
G|-/11-11-11-11-11--/9--9--9--9--9------------------------|
D|--------------------------------------------------------|
A|--------------------------------------------------------|
E|--------------------------------------------------------|
Tap to rate this tab
# A B C D E F G H I J K L M N O P Q R S T U V W X Y Z