Song name
# A B C D E F G H I J K L M N O P Q R S T U V W X Y Z

Teenage Bottlerocket - Mini Skirt tab

-------------------------------------------------------------------------------
			     MINI SKIRT - Teenage Bottlerocket
-------------------------------------------------------------------------------
Tabbed by: Curtis Fisher
Email: cmf@phnxmusic.net

Tuning: Standard

Listen to song for rhythm
and number of total strums
and use downstrokes only.

..1,2,3,4!

e|---------------------------------------------------------------------------|
B|---------------------------------------------------------------------------|
G|------10--12--10-----------------------------------------------------------|
D|--10--10--12--10--[x4]-----------------------------------------------------|
A|--10--8---10--8------------------------------------------------------------|
E|--8------------------------------------------------------------------------|

e|---------------------------------------------------------------------------|
B|---------------------------------------------------------------------------|
G|------10--12--10-----------------------------------------------------------|
D|--10--10--12--10--[x4]-----------------------------------------------------|
A|--10--8---10--8------------------------------------------------------------|
E|--8------------------------------------------------------------------------|
    PM............

e|---------------------------------------------------------------------------|
B|---------------------------------------------------------------------------|
G|------10--12--10-----------------------------------------------------------|
D|--10--10--12--10--[x2]-----------------------------------------------------|
A|--10--8---10--8------------------------------------------------------------|
E|--8------------------------------------------------------------------------|

e|---------------------------------------------------------------------------|
B|---------------------------------------------------------------------------|
G|------10--12--10-----------------------------------------------------------|
D|--10--10--12--10--[x4]-----------------------------------------------------|
A|--10--8---10--8------------------------------------------------------------|
E|--8------------------------------------------------------------------------|
    PM............

e|---------------------------------------------------------------------------|
B|---------------------------------------------------------------------------|
G|------10--12--10-----------------------------------------------------------|
D|--10--10--12--10--[x4]-----------------------------------------------------|
A|--10--8---10--8------------------------------------------------------------|
E|--8------------------------------------------------------------------------|

e|------------------------------------------------------------------------------|
B|------------------------------------------------------------------------------|
G|------------------------------------------------------------------------------|
D|----------10------------------------------------------------------------------|
A|--end-on--10------------------------------------------------------------------|
E|----------8-------------------------------------------------------------------|


| /  slide up
| \  slide down
| h  hammer-on
| p  pull-off
| ~  vibrato
| +  harmonic
| x  Mute note
===============================================================================
Tap to rate this tab
# A B C D E F G H I J K L M N O P Q R S T U V W X Y Z