Song name
# A B C D E F G H I J K L M N O P Q R S T U V W X Y Z

Teenage Bottlerocket - Repeat Offender tab

Verse(Repeat Offender, Repeat Offender)
e--------------------------------------------|
B--------------------------------------------|
G--------7------9----------------------------|
D---7----7----7-9----------------------------|
A---7----5----7-7----------------------------|
E---5---------5------------------------------|

Chorus(Whoaaaaa)
e--------------------------------------------|
B--------------------------------------------|
G--7---------7------7--9---------------------|
D--7----7----7-7----7--9---------------------|
A--5----7----5-7----5--7---------------------|
E-------5------5-----------------------------|

Verse Again(palm mute)


Chorus Again

Solo
e---------------------------------------------|
B---------------------------------------------|
G--99969-99642--2h4h6---99969-99646---7p6-----|
D---------------------------------------------|
A---------------------------------------------|
E---------------------------------------------|

e----------------------------------------------|
B----------------------------------------------|
G-99969/14-13-11-9--9h11p9--99969-99642--2h4h6-|
D----------------------------------------------|
A----------------------------------------------|
E----------------------------------------------|


Verse Again(pulm muted)


A kickass song for all the punk fans
Tap to rate this tab
# A B C D E F G H I J K L M N O P Q R S T U V W X Y Z