Song name
# A B C D E F G H I J K L M N O P Q R S T U V W X Y Z

Teenage Bottlerocket - Fall For Me tab

I did it by ear and it sounds pretty good. if you have any suggestions let me know.


All Versus:-------------------|
           -------------------|
           -------5---9--7----|
           ---5---5---9--7----|
           ---5--3---7--5-----|
           --3----------------|

Chorus:  -----------------|
         -----------------|
         ------5---7------|
         --5---5---7------|
         --5--3---5-------|
         -3---------------|


Bridge:(x2)
        --------------------|
        --------------------|
        ----5---7-----------|
        ----5---7-----------|
        ---3---5------------|
        --------------------|

Outro:  ---------------------------|
        ---------------------------|
        -------5---7---5-----------|
        ---5---5---7---5-----------|
        ---5--3---5---3------------|
        --3------------------------|
Tap to rate this tab
# A B C D E F G H I J K L M N O P Q R S T U V W X Y Z