Song name
# A B C D E F G H I J K L M N O P Q R S T U V W X Y Z

Teenage Bottlerocket - Bigger Than Kiss tab

-------------------------------------------------------------------------------
			     BIGGER THAN KISS - Teenage Bottlerocket
-------------------------------------------------------------------------------

Tabbed by: ElSuperSinister

Email: ElSuperSinister@hotmail.com 
(Don't know why you'd Email me but whatever)

Tuning: Standerd E    *************************
                      | x   Mute Note
Side Note:            | #   Play Note 6 Times
ONLY RHYTHM GUITAR    | *   Play note 12 Times
                      *************************

Intro/Chorus
G|-777-----777-----777-------777-------|x2
D|-777--9*-777--7*-777--555--777--777--|
A|-555--9--555--7--555--555--555--777--|
E|------7-------5-------333-------555--|

Verse Prt1      Verse Prt2
G|--------9#-| |-------9#-|
D|-9x--5#-9--| |-9*-5#-9--|
A|-9x--5--7--| |-9--5--7--|
E|-7x--3-----| |-7--3-----|

Bridge/Outro
G|-------7777--------------------7777-----------|
D|-5555--7777--7777--9999--5555--7777--77777777-|
A|-5555--5555--7777--9999--5555--5555--77777777-|
E|-3333--------5555--7777--3333--------55555555-|

G|-------7777--------------------------------|
D|-5555--7777--7777--9999--5555--7777--99999-|
A|-5555--5555--7777--9999--5555--7777--99999-|
E|-3333--------5555--7777--3333--5555--77777-|

It's probably right.
Listen to the song and figure it out. You'll be fine.

Tap to rate this tab
 
# A B C D E F G H I J K L M N O P Q R S T U V W X Y Z