Song name
# A B C D E F G H I J K L M N O P Q R S T U V W X Y Z

Teenage Bottlerocket - Do What tab

-------------------------------------------------------------------------------
			     Do What? - Teenage Bottlerocket
-------------------------------------------------------------------------------
Tabbed by: twebs22
Email: twebs22@yahoo.com

Tuning: Standard

Intro (play One Time)

   G C D
e|---------------------------------------------------------------------------|
B|---------------------------------------------------------------------------|
G|---5-7---------------------------------------------------------------------|
D|-5-5-7---------------------------------------------------------------------|
A|-5-3-5---------------------------------------------------------------------|
E|-3-------------------------------------------------------------------------|
   
Verse

    G    C    E    D    G    C    E    D
e|---------------------------------------------------------------------------|
B|---------------------------------------------------------------------------|
G|------555x------777x------555x------777x-----------------------------------|
D|-555x-555x-222x-777x-555x-555x-222x-777x-----------------------------------|
A|-555x-333x-222x-555x-555x-333x-222x-555x-----------------------------------|
E|-333x------000x------333x------000x----------------------------------------|

    G  C  E  D  G  C E     D
e|---------------------------------------------------------------------------|
B|---------------------------------------------------------------------------|
G|----x5----x7----x5-------77777777777777------------------------------------|
D|-x5-x5-x2-x7-x5-x5-2222--77777777777777------------------------------------|
A|-x5-x3-x2-x5-x5-x3-2222--55555555555555------------------------------------|
E|-x3----x0----x3----0000----------------------------------------------------|

Bridge

   C         D         C         D
e|---------------------------------------------------------------------------|
B|---------------------------------------------------------------------------|
G|-55555555--77777777--55555555--77777777------------------------------------|
D|-55555555--77777777--55555555--77777777------------------------------------|
A|-33333333--55555555--33333333--55555555------------------------------------|
E|---------------------------------------------------------------------------|

Chorus

   G C D C
e|---------------------------------------------------------------------------|
B|---------------------------------------------------------------------------|
G|---5-7-5---5-7-5---5-7-5---5-7-5-------------------------------------------|
D|-5-5-7-5-5-5-7-5-5-5-7-5-5-5-7-5-------------------------------------------|
A|-5-3-5-3-5-3-5-3-5-3-5-3-5-3-5-3-------------------------------------------|
E|-3-------3-------3-------3-------------------------------------------------|

   G E C
e|---------------------------------------------------------------------------|
B|---------------------------------------------------------------------------|
G|-----5---5-5-----5-----5---------------------------------------------------|
D|-5-2-5-5-2-5-5-2-5-5-2-5---------------------------------------------------|
A|-5-2-3-5-2-3-5-2-3-3-2-3---------------------------------------------------|
E|-3-0---3-0---3-0---3-0-----------------------------------------------------|
   
Verse

    G    C    E    D    G    C    E    D
e|---------------------------------------------------------------------------|
B|---------------------------------------------------------------------------|
G|------555-------777-------555-------777------------------------------------|
D|-555--555--222--777--555--555--222--777------------------------------------|
A|-555--333--222--555--555--333--222--555------------------------------------|
E|-333-------000-------333-------000-----------------------------------------|

    G  C  E  D  G  C  E    D
e|---------------------------------------------------------------------------|
B|---------------------------------------------------------------------------|
G|----x5----x7----x5-------77777777777777------------------------------------|
D|-x5-x5-x2-x7-x5-x5-2222--77777777777777------------------------------------|
A|-x5-x3-x2-x5-x5-x3-2222--55555555555555------------------------------------|
E|-x3----x0----x3----0000----------------------------------------------------|

Bridge

   C         D         C         D
e|---------------------------------------------------------------------------|
B|---------------------------------------------------------------------------|
G|-55555555--77777777--55555555--77777777------------------------------------|
D|-55555555--77777777--55555555--77777777------------------------------------|
A|-33333333--55555555--33333333--55555555------------------------------------|
E|---------------------------------------------------------------------------|

Chorus

   G C D C
e|---------------------------------------------------------------------------|
B|---------------------------------------------------------------------------|
G|---5-7-5---5-7-5---5-7-5---5-7-5-------------------------------------------|
D|-5-5-7-5-5-5-7-5-5-5-7-5-5-5-7-5-------------------------------------------|
A|-5-3-5-3-5-3-5-3-5-3-5-3-5-3-5-3-------------------------------------------|
E|-3-------3-------3-------3-------------------------------------------------|

Outro

    G    C    E    D    G    C    E    D
e|---------------------------------------------------------------------------|
B|---------------------------------------------------------------------------|
G|------555x------777x------555x------777x-----------------------------------|
D|-555x-555x-222x-777x-555x-555x-222x-777x-----------------------------------|
A|-555x-333x-222x-555x-555x-333x-222x-555x-----------------------------------|
E|-333x------000x------333x------000x----------------------------------------|

   C         D         C         D
e|---------------------------------------------------------------------------|
B|---------------------------------------------------------------------------|
G|----------55555555----------77777777----------55555555----7x---------------|
D|-55555555-55555555-22222222-77777777-55555555-55555555-2x-7x-55x-----------|
A|-55555555-33333333-22222222-55555555-55555555-33333333-2x-5x-55x-----------|
E|-33333333----------00000000----------33333333----------0x----33x-----------|


************************************

| /   slide up
| \   slide down
| h   hammer-on
| p   pull-off
| ~   vibrato
| +   harmonic
| x   Mute note
| b   Bend
| pb  Pre-bend
| br  Bend release
| pbr Pre-bend release
| brb Bend release bend

************************************
Tap to rate this tab
# A B C D E F G H I J K L M N O P Q R S T U V W X Y Z